Reply to this topicStart new topic
> Where Is Your Tabs ?, Where is your Tabs in: " Modern Blues in G minor" ?
Philippe LG
post Mar 10 2011, 07:51 PM
Post #1


GMC:er
*

Group: Members
Posts: 1
Joined: 10-March 11
Member No.: 12.399



Hello,

Where is your Tabs in: " Modern Blues in G minor " ?

Thank's to help me .

Philippe
Go to the top of the page
 
+Quote Post
Laszlo Boross
post Mar 11 2011, 03:53 PM
Post #2


Instructor
Group Icon

Group: GMC Instructor
Posts: 1.034
Joined: 9-July 09
From: Budapest
Member No.: 7.375



QUOTE (Philippe LG @ Mar 10 2011, 07:51 PM) *
Hello,

Where is your Tabs in: " Modern Blues in G minor " ?

Thank's to help me .

Philippe

HI!
I'll look for it and send you tomorrow.
Regards Laszlo smile.gif


--------------------
Check out my lessons
Go to the top of the page
 
+Quote Post
Laszlo Boross
post Mar 11 2011, 10:16 PM
Post #3


Instructor
Group Icon

Group: GMC Instructor
Posts: 1.034
Joined: 9-July 09
From: Budapest
Member No.: 7.375



QUOTE (Laszlo Boross @ Mar 11 2011, 03:53 PM) *
HI!
I'll look for it and send you tomorrow.
Regards Laszlo smile.gif


Here you are the tab!
I hope It helps you!
Laszlo smile.gif



Modern blues in G minor


Sáv 1
|--3--| |--3--| |--3-| |---3--| |--3--| |--3--| |--3-| |--3--|
E E E E E E Q E E E E E E E E E E Q E E E E
E||-----------3-----3--L-----------------|-----------3-----3--L----------------|
B||-----------3-----3--L-----------------|-----------3-----3--L----------------|
G||-----------3-----3--L-----------------|-----------3-----3--L----------------|
D||-----------3-----3--L-----------------|-----------3-----3--L----------------|
A||-----------5-----5--L-----------------|-----------5-----5--L----------------|
E||--3-----3--3-----3--L----3--6--L--/6--|--3-----3--3-----3--L----3--1--1--2--|


|--3--| |--3--| |--3-| |---3--| |--3--| |--3--| |--3-| |--3--|
E E E E E E Q E E E E E E E E E E Q E E E E
-----------3-----3--L-----------------|-----------3-----3--L----------------|
-----------3-----3--L-----------------|-----------3-----3--L----------------|
-----------3-----3--L-----------------|-----------3-----3--L----------------|
-----------3-----3--L-----------------|-----------3-----3--L----------------|
-----------5-----5--L-----------------|-----------5-----5--L-------1--1--2--|
--3-----3--3-----3--L----3--6--L--/6--|--3-----3--3-----3--L----3-----------|


|--3--| |--3--| |--3-| |--3-| |--3--| |--3--| |--3-| |--3--|
E E E E E E Q E Q E E E E E E E Q E E E E
-----------3-----3--L----------------|-----------3-----3--L----------------|
-----------4-----4--L----------------|-----------4-----4--L----------------|
-----------3-----3--L----------------|-----------3-----3--L----------------|
-----------5-----5--L----------------|-----------5-----5--L----------------|
--3-----3--3-----3--L----3--/6----6--|--3-----3--3-----3--L----3-----------|
-------------------------------------|----------------------------1--1--2--|


|--3--| |--3--| |--3-| |---3--| |--3--| |--3--| |--3-| |--3--|
E E E E E E Q E E E E E E E E E E Q E E E E
-----------3-----3--L-----------------|-----------3-----3--L----------------|
-----------3-----3--L-----------------|-----------3-----3--L----------------|
-----------3-----3--L-----------------|-----------3-----3--L----------------|
-----------3-----3--L-----------------|-----------3-----3--L----------------|
-----------5-----5--L-----------------|-----------5-----5--L-------3--3--4--|
--3-----3--3-----3--L----3--6--L--/6--|--3-----3--3-----3--L----3-----------|


|--3--| |--3--| |--3--| |---3---|
E E E E E E Q E E E E
-----------------------------------------|
-----------6-----6--L------------13------|
-----------5-----5--L--------11------11--|
-----------4-----4--L----12--------------|
--5-----5--5-----5--L--------------------|
-----------------------------------------|


|--3--| |--3--| |--3--| |--3--| |--3--| |--3--| |--3-| |--3--|
E E E E E E Q E Q E E E E E E E Q E E E E
-----------3-----3--L------------------|-----------3-----3--L----------------|
-----------4-----4--L--------10--------|-----------3-----3--L----------------|
-----------3-----3--L------------------|-----------3-----3--L----------------|
-----------5-----5--L----10--------10--|-----------3-----3--L----------------|
--3-----3--3-----3--L------------------|-----------5-----5--L-------3--3--4--|
---------------------------------------|--3-----3--3-----3--L----3-----------|


|--3-| |--3--| |--3--| |--3--| |--3--|
Q E E E E H Q E E E E Q E E E
----------------------------|-----------3-----------------------|
-------6-----6-----6--------|--------3-----3--6--6b----L--------|
-------5-----5-----5--------|--5b-------------------------3--5--|
-------4-----4-----4--------|-----------------------------------|
-------5-----5-----5--------|-----------------------------------|
----------------------------|-----------------------------------|


|--3--| |--3--| |---3--| |--3--| |--3--| |--3--|
Q E E E E E E E Q Q E E E E Q E E E
-----------3-----------------------|-----------3-----------------------|
--------3-----3--6--6b-------------|--------3-----3--6--6b----L--------|
--5b-----------------------3--L----|--5b-------------------------3--5--|
-----------------------------------|-----------------------------------|
-----------------------------------|-----------------------------------|
-----------------------------------|-----------------------------------|


|---3--| |---3--|
E E E E E E Q Q H Q Q
---------3------3--6--6b----6----|--8b--------8pbr----8pbr----|
------3-----6b-------------------|----------------------------|
--5b-----------------------------|----------------------------|
---------------------------------|----------------------------|
---------------------------------|----------------------------|
---------------------------------|----------------------------|


|------3------| |--3--| |---3---| |--3--|
Q T T T T E E E E E S S E E E
--8pbr----6-8-6-5-----------------------------|
------------------6---------------------------|
---------------------7--5--3---------3--5--7--|
------------------------------5--3-5----------|
----------------------------------------------|
----------------------------------------------|


|--3--| |---3--|
E E E H S S S E W
--------6--8b--------8pbr-6------|-------------------|
--6--8----------------------8-8--|--L----------------|
---------------------------------|-------------------|
---------------------------------|-------------------|
---------------------------------|-------------------|
---------------------------------|-------------------|


|--3--| |--3--| |--3-| |--3-| |-3-| |--3-| |3| 3
Q E E E E Q E Q Q E E S S S S S E E. E E
-----------------------------------|---------------3----3----3---------------|
--/7s----3--3--1--3--/7----3--L----|--/8----3--6b----6b---6b---6b--L---3--6--|
-----------------------------------|-----------------------------------------|
-----------------------------------|-----------------------------------------|
-----------------------------------|-----------------------------------------|
-----------------------------------|-----------------------------------------|


|--3--| |--3--|
T T T T T T T T T T T T T T T T T T T T T T T T T T T T T T T T T
--------------------------------------------------------------------------------
--3h-6p-3---3h-6p-3---3h-6p-3---3-----------------------------------------------
----------6---------6---------6---5h-6p-5p-3---5---3h-4-------------------------
---------------------------------------------5---5------5-3h-5p-3---3-----------
------------------------------------------------------------------5---5-4-3---3-
----------------------------------------------------------------------------6---


S S S S H.
------------------------||
------------------------||
--------3-5b------------||
----3-5-----------------||
--5---------------------||
------------------------||




Duration Legend
---------------
W - whole
H - half
Q - quarter
E - 8th
S - 16th
T - 32nd
X - 64th
. - note dotted
|-n-| - n-tuplets


Tablature Legend
----------------
L - tied note
x - dead note
g - grace note
(n) - ghost note
> - accentuded note
NH - natural harmonic
AH - artificial harmonic
TH - tapped harmonic
SH - semi harmonic
PH - pitch harmonic
h - hammer on
p - pull off
b - bend
br - bendRelease
pb - preBend
pbr - preBendRelease
brb - bendReleaseBend
\n/ - tremolo bar dip
\n - tremolo bar dive
-/n - tremolo bar Release up
/n\ - tremolo bar inverted dip
/n - tremolo bar return
-\n - tremolo bar Release down
S - shift slide
s - legato slide
/ - slide into from below or out of upwards
\ - slide into from above or out of downwards
~ - vibrato
W - wide vibrato
tr - trill
TP - tremolo picking
T - tapping
S - slap
P - pop
< - fade in
^ - brush up
v - brush down


--------------------
Check out my lessons
Go to the top of the page
 
+Quote Post

Reply to this topicStart new topic
1 User(s) are reading this topic (1 Guests and 0 Anonymous Users)
0 Members:

 


RSS Lo-Fi Version Time is now: 28th May 2017 - 01:30 PM