Reply to this topicStart new topic
> Help Me With This Chord Please.
Robin
post May 27 2007, 03:21 PM
Post #1


GMC:er
*

Group: Members
Posts: 2.483
Joined: 9-January 07
From: Alta, Norway
Member No.: 1.061



--0-----------------0------------------0--------------------------------------------------
--2-----------------1------------------0---------------------------------------------------
--2-----------------2------------------2------------------------------------------------------
--2-----------------2------------------2----------------------------------------------------------
--0-----------------0------------------0----------------------------------------------------------
major------------minor--------------and what is this? O_o-------------------------------------




Thanks.

This post has been edited by Robin: May 27 2007, 03:22 PM


--------------------
Go to the top of the page
 
+Quote Post
Hemlok
post May 27 2007, 03:43 PM
Post #2


GMC:er
*

Group: Members
Posts: 1.033
Joined: 3-March 07
From: Western Australia
Member No.: 1.286



e minor, i believe, i might be completely wrong. thats what i know it as laugh.gif


--------------------


Go to the top of the page
 
+Quote Post
Andrew Cockburn
post May 27 2007, 03:50 PM
Post #3


Moderation Policy Director
Group Icon

Group: GMC Instructor
Posts: 10.459
Joined: 6-February 07
From: CT, USA
Member No.: 1.167



QUOTE (Robin @ May 27 2007, 10:21 AM) *
--0-----------------0------------------0--------------------------------------------------
--2-----------------1------------------0---------------------------------------------------
--2-----------------2------------------2------------------------------------------------------
--2-----------------2------------------2----------------------------------------------------------
--0-----------------0------------------0----------------------------------------------------------
major------------minor--------------and what is this? O_o-------------------------------------
Thanks.


That's an A sus 2 - interesting because it has no 3rd of any sort, a rarity in the chord world - it will work in a minor or major context, and if you supply a major 3rd elsewhere (e.g. on another instrument, or rythm part) it can act as a polychord to give you an A+9, or with a minor 3rd to give you Amadd9

QUOTE (Hemlok @ May 27 2007, 10:43 AM) *
e minor, i believe, i might be completely wrong. thats what i know it as laugh.gif


Well its open to interpretation as there were only 5 strings there - I assumed the bottom E was missing, making the first 2 chords A and Am ... if it was the top E missing, the first two chords would have been Esus and E, and the last would indeed have been E minor. But that didn't match the way Robin labelled them so I opted for the first interpretation.


--------------------
Check out my Instructor profile
Live long and prosper ...

My Stuff:

Electric Guitars : Ibanez Jem7v, Line6 Variax 700, Fender Plus Strat with 57/62 Pickups, Line6 Variax 705 Bass
Acoustic Guitars : Taylor 816ce, Martin D-15, Line6 Variax Acoustic 300 Nylon
Effects : Line6 Helix, Keeley Modded Boss DS1, Keeley Modded Boss BD2, Keeley 4 knob compressor, Keeley OxBlood
Amps : Epiphone Valve Jnr & Head, Cockburn A.C.1, Cockburn A.C.2, Blackstar Club 50 Head & 4x12 Cab
Go to the top of the page
 
+Quote Post
Robin
post May 27 2007, 03:57 PM
Post #4


GMC:er
*

Group: Members
Posts: 2.483
Joined: 9-January 07
From: Alta, Norway
Member No.: 1.061



Thank you so very much!


--------------------
Go to the top of the page
 
+Quote Post

Fast ReplyReply to this topicStart new topic
1 User(s) are reading this topic (1 Guests and 0 Anonymous Users)
0 Members:

 


RSS Lo-Fi Version Time is now: 19th January 2017 - 01:59 PM