Reply to this topicStart new topic
> Thursday Video Chat Review And Tabs
Alex Feather
post Jan 30 2012, 08:11 PM
Post #1


Instructor
Group Icon

Group: GMC Instructor
Posts: 4.332
Joined: 21-November 11
From: Los Angeles
Member No.: 14.398



Hey guys here are some reviews from Thursday video chat!
First of all here is the backing track
http://soundcloud.com/alex-feather-akimov/ii-v-i-jam
Chord progression is Emi7-A7-Gmaj7
I was talking about triads and how to use them in your improvisation
Here is harmonized scale
Emi7- F#mi7 - Gmaj7 - A7 - Bmi7- C#mi7b5 - Dmaj7
Here are the triads first three strings:

First inversion



Second inversion















Third inversion
















And here is the tapping tab that we were talking about

      S S S  S S S S  S S S  S S S S  S S  
E||---------------------------------------|
B||---------------------------------------|
G||---------------------------------------|
D||----------------------------------12-5-|
A||------------------12-5-7-14-7-5-7------|
E||--12-5-8-15-8-5-8----------------------|


S S S S S S S S S S S S S S S S S S S S S S S S S S S S S S S S
---------------------------------------|--------12-5-8-15-5-5-8-5-L-L-L-L-L-|
-----------------------------12-5-8-15-|--5-8-5-----------------------------|
-------------12-5-7-14-7-5-7-----------|------------------------------------|
--7-14-7-5-7---------------------------|------------------------------------|
---------------------------------------|------------------------------------|
---------------------------------------|------------------------------------|


S S S S S S S S S S S S S S S S W
--------------------------------7-14-7-10-|--17----------------|
-------------------------8-15-8-----------|--------------------|
------------------7-14-7------------------|--------------------|
-----------9-16-9-------------------------|--------------------|
--10-17-10--------------------------------|--------------------|
------------------------------------------|--------------------|


-------------------||
-------------------||
-------------------||
-------------------||
-------------------||
-------------------||



--------------------
Go to the top of the page
 
+Quote Post

Reply to this topicStart new topic
1 User(s) are reading this topic (1 Guests and 0 Anonymous Users)
0 Members:

 


RSS Lo-Fi Version Time is now: 24th September 2017 - 06:09 AM