Reply to this topicStart new topic
> Video Chat About Sweep At 6pm Tomorrow
Alex Feather
post Mar 25 2012, 04:06 AM
Post #1


Instructor
Group Icon

Group: GMC Instructor
Posts: 4.332
Joined: 21-November 11
From: Los Angeles
Member No.: 14.398



Hey Guys! we will continue talking about sweep arpeggios arpeggios
If you missed last video chat you can check out notes here
https://www.guitarmasterclass.net/guitar_fo...showtopic=42580
Tomorrow we will continue our journey I will explain more arpeggios and will start explaining how to approach them in your improvisation!
All arpeggios in a key of G

Tabs for tomorrow
E |--------2--5--3--------------5--8--7----------------|
B |-----3-----------5--------7-----------8--------10---|
G |--2-----------------4--5-----------------7--9-------|
D |----------------------------------------------------|
A |----------------------------------------------------|
E |----------------------------------------------------|


--8--12-10-------------12-15-14---------------------|----|----|
-----------12-------13----------15------------------|----|----|
--------------11-12----------------14---------------|----|----|
--------------------------------------16----17------|----|----|
-----------------------------------------17---------|----|----|
----------------------------------------------------|----|----|


-----------------------2--3--2----------------------|-------|
--------------------3-----------3-------------------|-------|
-----------------4-----------------4----------------|-------|
-----------4--5-----------------------5--4----------|-------|
-----2--5-----------------------------------5--2----|-------|
--3-------------------------------------------------|--3----|


-----------------------3--5--3----------------------|-------|
--------------------5-----------5-------------------|-------|
--------------5--7-----------------7--5-------------|-------|
-----------5-----------------------------5----------|-------|
-----3--7-----------------------------------7--3----|-------|
--5-------------------------------------------------|--5----|


-----------------------8--10-8----------------------|-------|
--------------------10----------10------------------|-------|
-----------------11----------------11---------------|-------|
-----------10-12----------------------12-10---------|-------|
-----9--12----------------------------------12-9----|-------|
--10------------------------------------------------|--10---|


-----------------------12-14-12---------------------|-------|
--------------------13----------13------------------|-------|
-----------------14----------------14---------------|-------|
-----------14-15----------------------15-14---------|-------|
-----12-15----------------------------------15-12---|-------|
--14------------------------------------------------|--14---|


--------------7--10-15-10-7-------------------------|
-----------8-----------------8----------------------|
--------7-----------------------7-------------------|
-----9-----------------------------9----------------|
--10----------------------------------10------------|
----------------------------------------------------|


--------------8--12-17-12-8-------------------------|
-----------10----------------10---------------------|
--------9-----------------------9-------------------|
-----10----------------------------10---------------|
--12----------------------------------12------------|
----------------------------------------------------|


--------------5--8--14-8--5-------------------------||
-----------7-----------------7----------------------||
--------5-----------------------5-------------------||
-----7-----------------------------7----------------||
--9-----------------------------------9-------------||
----------------------------------------------------||

Guitar Pro file
Attached File  Arpeggios.gpx ( 17.7K ) Number of downloads: 61


I am looking forward to see you all!!!
P.S. I started my mentoring program you can sign up here if you are interested!
https://www.guitarmasterclass.net/guitar_fo...showtopic=43564


--------------------
Go to the top of the page
 
+Quote Post

Fast ReplyReply to this topicStart new topic
1 User(s) are reading this topic (1 Guests and 0 Anonymous Users)
0 Members:

 


RSS Lo-Fi Version Time is now: 23rd September 2017 - 03:50 PM