Reply to this topicStart new topic
> Arpeggios Video Chat Part 3 Tomorrow At 6 Pm
Alex Feather
post Mar 31 2012, 04:05 PM
Post #1


Instructor
Group Icon

Group: GMC Instructor
Posts: 4.332
Joined: 21-November 11
From: Los Angeles
Member No.: 14.398



Hi guys tomorrow we will have another video chat about arpeggios!
I will be explaining all inversions starting from the fourth string
Also will continue talking about using arpeggios in everyday playing
and will explain how to approach them!
Here is the tab
E |----------------------------|----------------------------|
B |--------1--3----------------|--5--7--------------8--10---|
G |-----2--------4--------5----|--------7--------9----------|
D |--4--------------5--7-------|-----------9--10------------|
A |----------------------------|----------------------------|
E |----------------------------|----------------------------|


----------------------------|----------------------------|
--------------12-13---------|--------15-15L---------15---|
--11-------12-------14------|-----16----16L---------16---|
-----12-14-------------16---|--17-------17L---------17---|
----------------------------|----------------------------|
----------------------------|----------------------------|


----------------------------|----------------------------|
--------1--3----------------|--5--7--------------8--10---|
-----2--------4--------5----|--------7--------9----------|
--2--------------4--5-------|-----------7--9-------------|
----------------------------|----------------------------|
----------------------------|----------------------------|


----------------------------|----|----------------------------|
--------------12-12---------|----|--------1--3----------------|
--11-------12----12---------|----|-----0--------2--------4----|
-----10-12-------12---------|----|--2--------------4--5-------|
----------------------------|----|----------------------------|
----------------------------|----|----------------------------|


----------------------------|----------------------------|
--5--7--------------8--10---|--------------12-13---------|
--------5--------7----------|--9--------11-------12------|
-----------7--9-------------|-----10-12-------------14---|
----------------------------|----------------------------|
----------------------------|----------------------------|


----------------------------|-----------------------8----|
--------15-15L---------15---|--------------------10------|
-----14----16L---------16---|--------------5--9----------|
--17-------17L---------17---|-----------7----------------|
----------------------------|--------7-------------------|
----------------------------|--5--8----------------------|


--12-17-12-8----------------|-------|----|--------------------5-------|
--------------10------------|-------|----|-----------------5-----5----|
-----------------9----------|-------|----|-----------2--5-------------|
--------------------10------|-------|----|--------2-------------------|
-----------------------12L--|--12---|----|-----3----------------------|
----------------------------|-------|----|--5-------------------------|


----------------------------|----|----|----|----|----|----|----|----|----|----|
----------------------------|----|----|----|----|----|----|----|----|----|----|
--5--2----------------------|----|----|----|----|----|----|----|----|----|----|
--------2-------------------|----|----|----|----|----|----|----|----|----|----|
-----------3----------------|----|----|----|----|----|----|----|----|----|----|
--------------5-------------|----|----|----|----|----|----|----|----|----|----|


----|----|----|----||
----|----|----|----||
----|----|----|----||
----|----|----|----||
----|----|----|----||
----|----|----|----||


Attached File  Arpeggios_part_3.gp5 ( 3.46K ) Number of downloads: 71

See you tomorrow at 6!!!


--------------------
Go to the top of the page
 
+Quote Post

Fast ReplyReply to this topicStart new topic
1 User(s) are reading this topic (1 Guests and 0 Anonymous Users)
0 Members:

 


RSS Lo-Fi Version Time is now: 26th May 2017 - 09:57 PM