2 Pages V  < 1 2  
Reply to this topicStart new topic
> Darkwaveriffer Guitar Mentoring
Alex Feather
post May 22 2012, 06:21 AM
Post #21


Instructor
Group Icon

Group: GMC Instructor
Posts: 4.332
Joined: 21-November 11
From: Los Angeles
Member No.: 14.398



I have a really cool exercise similar to the scale one! It will help you to learn pentatonic shapes faster!
Get comfortable with it and next week we will start working on melodic assignments! I am preparing something really cool for you! smile.gif
Here is the tab!
E |-----------------------------------------3--5-------|
B |--------------------------------------3--------3----|
G |-----------------------4--------2--4----------------|
D |--------2-----------2-----5--2----------------------|
A |-----------5--2-------------------------------------|
E |--3--5-----------5----------------------------------|


-----3-----------------------5--7-------------------|
--5--------3-----------5--8--------5----------------|
--------4--------4--7-----------------7-------------|
--------------5--------------------------5----------|
--------------------------------------------7-------|
-----------------------------------------------5----|


-----------------7--10----10----------7-----10------|
--------------8--------------------8-----10----8----|
-----------4-----------------7----------------------|
--------7--------------9----------------------------|
-----5--------------------------10------------------|
--7-------------------------------------------------|


-----------------------------10---------------------|
--------------------------------12------------------|
--9--7--------------------12------------------------|
--------9--7-----------9--------------12------------|
--------------10-------------------10----------14---|
-----------------10-12-------------------12-15------|


----------------------------------------------------|
--------------------15-12----15-12----15-12----15---|
--------15-------14-------15-------14-------12------|
-----14-------12------------------------------------|
-----------14---------------------------------------|
--12------------------------------------------------|


--12-15---------------------------------------------||
----------------------------------------------------||
----------------------------------------------------||
----------------------------------------------------||
----------------------------------------------------||
--------0L----------------------0L----0-------------||

Attached File  Pentatonic_insanity.gpx ( 16.24K ) Number of downloads: 26


Let me know if you have any questions!
I will send you a PM when your new assignment is ready! smile.gif


--------------------
Go to the top of the page
 
+Quote Post
Alex Feather
post Jun 4 2012, 05:55 AM
Post #22


Instructor
Group Icon

Group: GMC Instructor
Posts: 4.332
Joined: 21-November 11
From: Los Angeles
Member No.: 14.398



Hello! I just wanted to check and see if you are ready for a new challenge!


--------------------
Go to the top of the page
 
+Quote Post
Alex Feather
post Jun 22 2012, 07:14 AM
Post #23


Instructor
Group Icon

Group: GMC Instructor
Posts: 4.332
Joined: 21-November 11
From: Los Angeles
Member No.: 14.398



QUOTE (DarkWaveRiffer @ Apr 8 2012, 05:44 AM) *
Hi Alex,
I did start working on the scale yesterday. It's not one I am used to. Some of the notes repeat, and some have single notes on a string, or skip a string. I am used to more sequential. I have been putting a lot of time into the Metal Rhythm with Octaves, but I have started on the first 1/3 of the scale.I just got focusrite Scarlett 8i6 Audio Interface, and trying to get that working. I will record my progress soon!

I have a new melodic assignment for you! Let me know if you are ready!


--------------------
Go to the top of the page
 
+Quote Post
Alex Feather
post Jul 14 2012, 05:47 PM
Post #24


Instructor
Group Icon

Group: GMC Instructor
Posts: 4.332
Joined: 21-November 11
From: Los Angeles
Member No.: 14.398



Just wanted to follow up and see how are you doing?


--------------------
Go to the top of the page
 
+Quote Post
Alex Feather
post Aug 27 2012, 07:54 AM
Post #25


Instructor
Group Icon

Group: GMC Instructor
Posts: 4.332
Joined: 21-November 11
From: Los Angeles
Member No.: 14.398



Hi! I haven't heard from you for a while! How is everything going?


--------------------
Go to the top of the page
 
+Quote Post

2 Pages V  < 1 2
Reply to this topicStart new topic
1 User(s) are reading this topic (1 Guests and 0 Anonymous Users)
0 Members:

 


RSS Lo-Fi Version Time is now: 23rd March 2017 - 01:32 AM