Reply to this topicStart new topic
> Arpeggios Part 4 Video Chat Tomorrow At 6 Pm
Alex Feather
post Apr 8 2012, 09:25 AM
Post #1


Instructor
Group Icon

Group: GMC Instructor
Posts: 4.332
Joined: 21-November 11
From: Los Angeles
Member No.: 14.398



Hey guys so tomorrow is the final part of arpeggio series!
We will be talking about 3 string triads starting with a low E
I will keep explaining how to use triads and arpeggios in your playing!
Here is the tab:
E |----------------------------|----------------------------|
B |----------------------------|----------------------------|
G |----------------------------|----------------------------|
D |--------0--2----------------|--4--5--------------7--9----|
A |-----2--------3--------5----|--------7--------9----------|
E |--3--------------5--7-------|-----------8--10------------|


----------------------------|----|----------------------------|
----------------------------|----|----------------------------|
----------------------------|----|----------------------------|
--------------10-12---------|----|--------0--2----------------|
--10-------12-------14------|----|-----2--------3--------5----|
-----12-14-------------15---|----|--2--------------3--5-------|


----------------------------|----------------------------|-------|
----------------------------|----------------------------|-------|
----------------------------|----------------------------|-------|
--4--5--------------7--9----|--------------10-12---------|-------|
--------7--------9----------|--10-------12-------14------|-------|
-----------7--8-------------|-----10-12-------------14---|--15---|


----------------------------|----------------------------|
----------------------------|----------------------------|
----------------------------|----------------------------|
--------2--4----------------|--5--7--------------9--10---|
-----2--------3--------5----|--------7--------9----------|
--3--------------5--7-------|-----------8--10------------|


----------------------------|-------|----------------------------|
----------------------------|-------|----------------------------|
----------------------------|-------|-----------------2-----0----|
--------------12-14---------|-------|--------2-----4-----2-------|
--10-------12-------14------|-------|-----3-----5----------------|
-----12-14-------------15---|--3----|--5-------------------------|


----------------------------|-----0--------2--------3----|----|----||
--0--------1--------3-------|--1--------3--------5-------|----|----||
--------2--------4-----2----|--------4--------5----------|----|----||
-----4--------5-------------|----------------------------|----|----||
----------------------------|----------------------------|----|----||
----------------------------|----------------------------|----|----||


Guitar Pro
Attached File  Arpeggios_part_4.gp5 ( 2.69K ) Number of downloads: 30


I will also review the previous parts but if you missed some video chats you can find notes here:
https://www.guitarmasterclass.net/guitar_fo...showtopic=42580

See you tomorrow!


--------------------
Go to the top of the page
 
+Quote Post

Fast ReplyReply to this topicStart new topic
1 User(s) are reading this topic (1 Guests and 0 Anonymous Users)
0 Members:

 


RSS Lo-Fi Version Time is now: 28th May 2017 - 09:30 PM