Reply to this topicStart new topic
> Harmonic Minor Part 1 Video Chat At 3 Pm!
Alex Feather
post Apr 15 2012, 08:51 AM
Post #1


Instructor
Group Icon

Group: GMC Instructor
Posts: 4.332
Joined: 21-November 11
From: Los Angeles
Member No.: 14.398



Hey guys!!! I am starting a new series of lessons about harmonic minor!
We will cover the everything: Scales, Modes, Arpeggios and triads, I will explain how you can use harmonic minor in your playing and add some spice in to your solos!
We will start with E harmonic minor modes
Harmonic minor mode are:
Aeolian #7
Locrian #6
Ionian #5
Dorian #4
Phrygian Major
Lydian #2
Mixolydian #1



Locrian#6
E |-----------------------------------------------3----|
B |--------------------------------------4--5--7-------|
G |-----------------------------2--4--5----------------|
D |--------------------2--4--5-------------------------|
A |-----------2--3--6----------------------------------|
E |--2--3--5-------------------------------------------|


--5--7L----------------------7L----------7L----7----|
----------------------------------------------------|
----------------------------------------------------|
----------------------------------------------------|
----------------------------------------------------|
----------------------------------------------------|

Ionian #5
-----------------------------------------------5----|
--------------------------------------5--7--8-------|
-----------------------------4--5--8----------------|
--------------------4--5--7-------------------------|
-----------3--6--7----------------------------------|
--3--5--7-------------------------------------------|


--7--8L-8L----------------------8L----------8-------|
----------------------------------------------------|
----------------------------------------------------|
----------------------------------------------------|
----------------------------------------------------|
----------------------------------------------------|

Dorian #4
-----------------------------------------------7----|
--------------------------------------7--8--10------|
-----------------------------5--8--9----------------|
--------------------5--7--9-------------------------|
-----------6--7--9----------------------------------|
--5--7--8-------------------------------------------|


--8--11L11L---------------------11L---------11------|
----------------------------------------------------|
----------------------------------------------------|
----------------------------------------------------|
----------------------------------------------------|
----------------------------------------------------|

Phrygian Major
-----------------------------------------------8----|
--------------------------------------8--10-12------|
-----------------------------8--9--11---------------|
--------------------7--9--10------------------------|
-----------7--9--10---------------------------------|
--7--8--11------------------------------------------|


--11-12L12L---------------------12------------------|
----------------------------------------------------|
----------------------------------------------------|
----------------------------------------------------|
----------------------------------------------------|
----------------------------------------------------|

Lydian #2
-----------------------------------------------11---|
--------------------------------------10-12-13------|
-----------------------------9--11-12---------------|
--------------------9--10-13------------------------|
-----------9--10-12---------------------------------|
--8--11-12------------------------------------------|


--12-14L14L---------------------14------------------|
----------------------------------------------------|
----------------------------------------------------|
----------------------------------------------------|
----------------------------------------------------|
----------------------------------------------------|

Mixolydian #1
-----------------------------------------------12---|
--------------------------------------12-13-16------|
-----------------------------11-12-14---------------|
--------------------10-13-14------------------------|
-----------10-12-14---------------------------------|
--11-12-14------------------------------------------|


--14-15L15L---------------------15------------------|
----------------------------------------------------|
----------------------------------------------------|
----------------------------------------------------|
----------------------------------------------------|
----------------------------------------------------|

Harmonic Minor (Aeolian #7)
-----------------------------------------------12---|
--------------------------------------12-13-16------|
-----------------------------12-14-16---------------|
--------------------13-14-16------------------------|
-----------12-14-15---------------------------------|
--12-14-15------------------------------------------|


--14-15L15L---------------------15------------------||
----------------------------------------------------||
----------------------------------------------------||
----------------------------------------------------||
----------------------------------------------------||
----------------------------------------------------||

Here is Guitar Pro
Attached File  Harmonic_Minor.gp5 ( 3.06K ) Number of downloads: 67


See you at 3 pm!!!


--------------------
Go to the top of the page
 
+Quote Post

Fast ReplyReply to this topicStart new topic
1 User(s) are reading this topic (1 Guests and 0 Anonymous Users)
0 Members:

 


RSS Lo-Fi Version Time is now: 29th May 2017 - 11:58 PM