Reply to this topicStart new topic
> Scale Shapes?
Nihilist1
post Apr 15 2012, 04:22 PM
Post #1


GMC:er
*

Group: Members
Posts: 974
Joined: 1-September 11
From: Chino Hills, California
Member No.: 13.756



Hello, Alex!


I was wondering if you could give us the exercises you talked about to memorise the scale shapes we covered today! Thanks! The scales were Harmonic Minor, Whole-Tone, and Diminished.

Have a good day!

-Nihil


--------------------
All the elders have fallen down...

Heal her now...

All the elders have fallen down...

Heal her now...

Grandfather elk
Turned to me
And spoke:

Light the fire deep inside.
Light the fires!

Go to the top of the page
 
+Quote Post
Alex Feather
post Apr 15 2012, 04:58 PM
Post #2


Instructor
Group Icon

Group: GMC Instructor
Posts: 4.332
Joined: 21-November 11
From: Los Angeles
Member No.: 14.398



Will do! Just give me a few hours to put it together! smile.gif


--------------------
Go to the top of the page
 
+Quote Post
AK Rich
post Apr 15 2012, 05:10 PM
Post #3


Learning Guitar Hero
*

Group: Members
Posts: 2.477
Joined: 10-September 11
From: Big Lake, Alaska
Member No.: 13.839



aw man I missed it sad.gif , it looks like it was an earlier lesson the time around, oh well at least i can check out the lesson notes when you get them up , Also Alex i was wondering if you ever tabbed out any of those examples you had of combining different scales and arppegios with tapping? I would love to go over those again and smash them into my brain smile.gif About the only one I can remember is combining the A penta and E penta which sounds pretty cool btw. cool.gif
Go to the top of the page
 
+Quote Post
Alex Feather
post Apr 15 2012, 05:27 PM
Post #4


Instructor
Group Icon

Group: GMC Instructor
Posts: 4.332
Joined: 21-November 11
From: Los Angeles
Member No.: 14.398



QUOTE (AK Rich @ Apr 15 2012, 04:10 PM) *
aw man I missed it sad.gif , it looks like it was an earlier lesson the time around, oh well at least i can check out the lesson notes when you get them up , Also Alex i was wondering if you ever tabbed out any of those examples you had of combining different scales and arppegios with tapping? I would love to go over those again and smash them into my brain smile.gif About the only one I can remember is combining the A penta and E penta which sounds pretty cool btw. cool.gif

Too bad you missed it! I will review everything next time! We will be talking about harmonic minor, whole tone and diminished scales for a while! So I am sure you will catch up!
Here is the tab for tapping!
First one is a combination of B minor pentatonic with D major triad
Second is combination of B minor and E minor pentatonics
Third is combination of G major and D major triads!
E |--17-10-14-7----------------------------------------|
B |--------------10-15-7-------------------------------|
G |-----------------------9--14-7----------------------|
D |--------------------------------9--16-7-------------|
A |-----------------------------------------9--17-7----|
E |----------------------------------------------------|


--10-15-7--12---------------------------------------|
--------------10-15-7--12---------------------------|
--------------------------9--14-7--12---------------|
--------------------------------------9--14-7--12---|
----------------------------------------------------|
----------------------------------------------------|


----------------------------------------------------|
----------------------------------------------------|
----------------------------------------------------|
----------------------------------------------------|
--9--14-7--12---------------------------------------|
--------------10-15-7--12L12------------------------|


--17-10-7--14---------------------------------------||
--------------8--15-8-------------------------------||
-----------------------7--14-7----------------------||
--------------------------------9--16-9-------------||
-----------------------------------------10-17-10---||
----------------------------------------------------||


Here is Guitar Pro file!
Attached File  Tapping_shapes.gp5 ( 2.1K ) Number of downloads: 51

Let me know if you have any questions!
I also will post a cool exercise to learn scales faster! smile.gif


--------------------
Go to the top of the page
 
+Quote Post
AK Rich
post Apr 15 2012, 05:44 PM
Post #5


Learning Guitar Hero
*

Group: Members
Posts: 2.477
Joined: 10-September 11
From: Big Lake, Alaska
Member No.: 13.839



Thanks Alex, now I have something to chew on today smile.gif Also I was wondering when your next V-chat lesson was going to be, I just checked the schedule and it doesnt look like you have anything scheduled for the next couple of Sundays, Going to be busy touring?
Go to the top of the page
 
+Quote Post
Alex Feather
post Apr 16 2012, 04:48 PM
Post #6


Instructor
Group Icon

Group: GMC Instructor
Posts: 4.332
Joined: 21-November 11
From: Los Angeles
Member No.: 14.398



QUOTE (AK Rich @ Apr 15 2012, 04:44 PM) *
Thanks Alex, now I have something to chew on today smile.gif Also I was wondering when your next V-chat lesson was going to be, I just checked the schedule and it doesnt look like you have anything scheduled for the next couple of Sundays, Going to be busy touring?

So here is my schedule for this week:
Wednesday 6am London Time
Sunday 4pm London time


--------------------
Go to the top of the page
 
+Quote Post
Alex Feather
post Apr 17 2012, 08:13 PM
Post #7


Instructor
Group Icon

Group: GMC Instructor
Posts: 4.332
Joined: 21-November 11
From: Los Angeles
Member No.: 14.398



QUOTE (Nihilist1 @ Apr 15 2012, 03:22 PM) *
Hello, Alex!


I was wondering if you could give us the exercises you talked about to memorise the scale shapes we covered today! Thanks! The scales were Harmonic Minor, Whole-Tone, and Diminished.

Have a good day!

-Nihil

Here is G major scale to start with!
Try this one first and I will post more soon!
E |----------------------------|-----------------7--5--3----|
B |----------------------------|--------3--7--5-------------|
G |-----------------------5----|--4--2----------------------|
D |-----------5--4--2----------|----------------------------|
A |--------------------3-------|----------------------------|
E |--2--5--3-------------------|----------------------------|


--8--7--5-------------------|----------------------------|
-----------8--8--7--5-------|----------------------------|
-----------------------7----|--5--4----------------------|
----------------------------|--------7--5--4-------------|
----------------------------|-----------------7--5--3----|
----------------------------|----------------------------|


--------------------7--8----|--10------------------------|
----------------------------|-----7--8--10---------------|
----------------------------|-----------------------5----|
----------------------------|----------------------------|
----------------------------|--------------5--7--9-------|
--7--5--3--5--7--8----------|----------------------------|


----------------------------|-----------10-12-14-12-10---|
----------------------------|--10-12-13------------------|
--7--9-----------7--9--11---|----------------------------|
--------5--7--9-------------|----------------------------|
----------------------------|----------------------------|
----------------------------|----------------------------|


----------------------------|----------------------------|
--13-12-10------------------|-----------------------12---|
----------------------------|--------------9--11-12------|
----------------------------|-----9--10-12---------------|
--------------------9--10---|--12------------------------|
-----------8--10-12---------|----------------------------|


--------12-14-15-14---------|----------------------------|-------||
--13-15-------------17------|--13------------------------|-------||
----------------------------|--------14------------------|-------||
-----------------------12---|-----------17---------------|-------||
----------------------------|-----14---------------------|-------||
----------------------------|--------------17-15-14-15L--|--15---||


Attached File  G_major_scale.gp5 ( 2.59K ) Number of downloads: 33



--------------------
Go to the top of the page
 
+Quote Post
Nihilist1
post Apr 18 2012, 02:51 PM
Post #8


GMC:er
*

Group: Members
Posts: 974
Joined: 1-September 11
From: Chino Hills, California
Member No.: 13.756



Thanks! I will be sure to keep you updated!


--------------------
All the elders have fallen down...

Heal her now...

All the elders have fallen down...

Heal her now...

Grandfather elk
Turned to me
And spoke:

Light the fire deep inside.
Light the fires!

Go to the top of the page
 
+Quote Post

Reply to this topicStart new topic
1 User(s) are reading this topic (1 Guests and 0 Anonymous Users)
0 Members:

 


RSS Lo-Fi Version Time is now: 30th March 2017 - 05:57 AM