5 Pages V  « < 3 4 5  
Reply to this topicStart new topic
> Bleez Guitar Mentoring
Alex Feather
post Oct 5 2012, 04:00 PM
Post #81


Instructor
Group Icon

Group: GMC Instructor
Posts: 4.332
Joined: 21-November 11
From: Los Angeles
Member No.: 14.398



QUOTE (bleez @ Sep 23 2012, 12:56 PM) *
hey dude smile.gif

found it quite tough with those two positions, I dont think this take is as good a my last but this is what I managed to come up with :

http://soundcloud.com/bleez666/chordprod

Hi I have an idea for a new assignment! How about we will work on your lick library for a little bit? Let me know!


--------------------
Go to the top of the page
 
+Quote Post
bleez
post Oct 5 2012, 04:43 PM
Post #82


Experienced Tone Seeker
*

Group: Members
Posts: 2.995
Joined: 4-November 11
From: Scotland
Member No.: 14.292



QUOTE (Alex Feather @ Oct 5 2012, 04:00 PM) *
Hi I have an idea for a new assignment! How about we will work on your lick library for a little bit? Let me know!

sounds good to me dude smile.gif


--------------------


You say 'minor pentatonic ' like it's a bad thing
Go to the top of the page
 
+Quote Post
Alex Feather
post Oct 8 2012, 12:07 AM
Post #83


Instructor
Group Icon

Group: GMC Instructor
Posts: 4.332
Joined: 21-November 11
From: Los Angeles
Member No.: 14.398



QUOTE (bleez @ Oct 5 2012, 03:43 PM) *
sounds good to me dude smile.gif

Awesome! I have this cool 15 fusion licks with a lot of chromatic runs and bends!
Let me know what you think smile.gif
E |--10-7----------------------|----------------------------|
B |-----------8--10------------|--8-------------------------|
G |--------9--------7--8--9----|-----7--6--7L-7-------------|
D |----------------------------|----------------------------|
A |----------------------------|----------------------------|
E |----------------------------|----------------------------|


--------5--------7----------|-----9--12-9----------------|
----------------------------|--10----------10------------|
--6--7-----6--7-----6s-9----|-----------------11-9L-9----|
----------------------------|----------------------------|
----------------------------|----------------------------|
----------------------------|----------------------------|


--10-7-----10-9--5----------|-----------------9--10------|
--------8-----------7-------|--------7--8--10------------|
-----------------------6----|--7--9----------------------|
----------------------------|----------------------------|
----------------------------|----------------------------|
----------------------------|----------------------------|


----------------------------|----------------------------|
----------------------------|----------------------------|
-----------7--6-------------|----------------------------|
--7--8--9--------7----------|----------------------------|
--------------------9--7----|--5--4--5--7----------------|
----------------------------|--------------5-------------|


--------------5--9--5-------|--------------3--2----------|
-----------------------7----|-----------5--------3-------|
-----6--7--8----------------|--6--4--6--------------2----|
----------------------------|----------------------------|
----------------------------|----------------------------|
----------------------------|----------------------------|


----------------------------|----------------------------|
--------------------10L10b--|--10-8--7L-7b-7-------------|
-----------7--9--11---------|----------------------------|
--------9-------------------|----------------------------|
--7--10---------------------|----------------------------|
----------------------------|----------------------------|


----------------------------|-----7-----9--7--10-12-9----|-------|
-----------7-----8--7--10---|--8-----10------------------|--10---|
--6--9--7-----9-------------|----------------------------|-------|
----------------------------|----------------------------|-------|
----------------------------|----------------------------|-------|
----------------------------|----------------------------|-------|


----------------------------|--5--9--5--2----------------|-------|
-----------------------7----|--------------3-------------|-------|
-----------7--9--7--6-------|-----------------2----------|-------|
--------9-------------------|--------------------4-------|-------|
--7--10---------------------|-----------------------5L---|--5----|
----------------------------|----------------------------|-------|


----------------------------|-----7--10-9----------------|-------|
----------------------------|--8-----------10-------8----|--7----|
--------------------6--9----|-----------------9--7-------|-------|
-----4--7--4--5--7----------|----------------------------|-------|
--5-------------------------|----------------------------|-------|
----------------------------|----------------------------|-------|


----------------------------|-----------7--10-9L-9-------|
--------------7--10-8-------|----------------------------|
-----------------------9----|--7--8--9-------------------|
--9--7--8--9----------------|----------------------------|
----------------------------|----------------------------|
----------------------------|----------------------------|


--9--10-9-------------------------------------------|
-----------10----------10-12-10-8--7--8--7----------|
--------------9--10-11----------------------9--7----|
----------------------------------------------------|
----------------------------------------------------|
----------------------------------------------------|


-----------------5--9--5--7-------------------------|
-----6--7--8--9--------------7----------------------|
--6-----------------------------7--6--7-------------|
----------------------------------------------------|
----------------------------------------------------|
----------------------------------------------------|


--------------------5--7-----5-----3-----2----------|
--------5--6--7--8--------------------------3-------|
--6--7-----------------------------------------2----|
----------------------------------------------------|
----------------------------------------------------|
----------------------------------------------------|


-----------2--3--2----------------------------------|
--------3-----------5--3--2--------5--3-------------|
--3--4-----------------------2--2-------------------|
----------------------------------------------------|
----------------------------------------------------|
----------------------------------------------------|


--------------8--------------------7--10-9----------|
-----------------7--------------8-----------10------|
--7--5--6--7--------7--6--7--9-----------------9----|
----------------------------------------------------|
----------------------------------------------------|
----------------------------------------------------|


----------------------------------------------------|
----------------------------------------------------|
--6--7----------------------------------------------|
--------9--7--5--4--2--0L----------------------0----|
----------------------------------------------------|
----------------------------------------------------|


--------15-14-12----12------------------------------|
-----------------15----15-14-12----12---------------|
--11s12-------------------------14----14-12-11-12---|
----------------------------------------------------|
----------------------------------------------------|
----------------------------------------------------|


----------------------------------------------------|
-----------------------15L15b15L---------15---------|
--11-------------14-16------------------------------|
-----14-12-14-16------------------------------------|
----------------------------------------------------|
----------------------------------------------------|


--10-7----------------------------------------------|
--------------10-8----------------------------------|
--------9--7--------------9--7--6--7--6-------------|
--------------------9--7-----------------7-----7----|
--------------------------------------------9-------|
----------------------------------------------------|


-----------------------7--9--10L10------------------||
--------------7--8--10------------------------------||
-----6--7--9----------------------------------------||
--9-------------------------------------------------||
----------------------------------------------------||
----------------------------------------------------||


Attached File  15_Fusion_Licks.gpx ( 20.63K ) Number of downloads: 20


Let me know if you have any questions or need help with anything! smile.gif


--------------------
Go to the top of the page
 
+Quote Post
bleez
post Oct 9 2012, 07:02 PM
Post #84


Experienced Tone Seeker
*

Group: Members
Posts: 2.995
Joined: 4-November 11
From: Scotland
Member No.: 14.292



hey Alex, I cant open guitar pro 6 files, I think I can only open GP 5.
Don't suppose you have that file in a different format?


--------------------


You say 'minor pentatonic ' like it's a bad thing
Go to the top of the page
 
+Quote Post
Alex Feather
post Oct 11 2012, 05:11 AM
Post #85


Instructor
Group Icon

Group: GMC Instructor
Posts: 4.332
Joined: 21-November 11
From: Los Angeles
Member No.: 14.398



QUOTE (bleez @ Oct 9 2012, 06:02 PM) *
hey Alex, I cant open guitar pro 6 files, I think I can only open GP 5.
Don't suppose you have that file in a different format?

Try this one
Attached File  15_Fusion_Licks.gp5 ( 5.08K ) Number of downloads: 24

Let me know f it works!


--------------------
Go to the top of the page
 
+Quote Post
bleez
post Oct 11 2012, 06:18 PM
Post #86


Experienced Tone Seeker
*

Group: Members
Posts: 2.995
Joined: 4-November 11
From: Scotland
Member No.: 14.292



QUOTE (Alex Feather @ Oct 11 2012, 05:11 AM) *
Try this one
Attached File  15_Fusion_Licks.gp5 ( 5.08K ) Number of downloads: 24

Let me know f it works!

perfect dude, thanks. some of those licks at the end get kinda fast smile.gif

They all sound cool, I'll get working on them.


--------------------


You say 'minor pentatonic ' like it's a bad thing
Go to the top of the page
 
+Quote Post
Alex Feather
post Oct 11 2012, 08:44 PM
Post #87


Instructor
Group Icon

Group: GMC Instructor
Posts: 4.332
Joined: 21-November 11
From: Los Angeles
Member No.: 14.398



QUOTE (bleez @ Oct 11 2012, 05:18 PM) *
perfect dude, thanks. some of those licks at the end get kinda fast smile.gif

They all sound cool, I'll get working on them.

Awesome! Have fun and in the meantime I will post another assignment for you:)


--------------------
Go to the top of the page
 
+Quote Post
bleez
post Oct 19 2012, 10:27 AM
Post #88


Experienced Tone Seeker
*

Group: Members
Posts: 2.995
Joined: 4-November 11
From: Scotland
Member No.: 14.292



hey alex,
Im currently working through these new licks but I was also wondering if you could give me some advice on scales / modes or basic theory.
Basically after reading the 'understanding Modes' post which Zoom made recently and watching the videos that got posted It made me realize how limited my theory knowledge is and I'd really like to improve this area.
All I really know is the 5 positions of the minor pentatonic, Im not sure where to start to try and improve this area, any suggestions?
cheers mate.


--------------------


You say 'minor pentatonic ' like it's a bad thing
Go to the top of the page
 
+Quote Post
Alex Feather
post Oct 22 2012, 04:50 PM
Post #89


Instructor
Group Icon

Group: GMC Instructor
Posts: 4.332
Joined: 21-November 11
From: Los Angeles
Member No.: 14.398



QUOTE (bleez @ Oct 19 2012, 09:27 AM) *
hey alex,
Im currently working through these new licks but I was also wondering if you could give me some advice on scales / modes or basic theory.
Basically after reading the 'understanding Modes' post which Zoom made recently and watching the videos that got posted It made me realize how limited my theory knowledge is and I'd really like to improve this area.
All I really know is the 5 positions of the minor pentatonic, Im not sure where to start to try and improve this area, any suggestions?
cheers mate.

I have a perfect exercise that will help you to master all the modes and scales
Title: Scales workout
Tempo = 90
Steel Guitar

Legend
L - tied note
x - dead note
h - hammer on/pull off
b - bend
s - slide
~ - vibrato
g - ghost note
> - accentuated note
t - trill
M - palm mute
. - staccato
P - popping (bass)
S - slapping (bass)
+ - tapping
W - wide vibrato
< - fade in
w - whammy bar
= - tremolo picking
v - brush up
^ - brush down
V - pick stroke up
n - pick stroke down


E ||----------------------------------------------3----|
B ||-------------------------------------3--5--7-------|
G ||o---------------------------2--4--5----------------|
D ||o------------------2--4--5-------------------------|
A ||----------2--3--5----------------------------------|
E ||-2--3--5-------------------------------------------|


--5--7--5--3---------------------------------------|||---------------|
--------------7--5--3------------------------------|||---------------|
-----------------------5--4--2--------------------o|||o--------------|
--------------------------------5--4--2-----------o|||o--------------|
-----------------------------------------5--3--2---|||---------------|
---------------------------------------------------|||---------------|


---------------|||----------------------------------------------5----|
---------------|||-------------------------------------5--7--8-------|
--------------o|||o---------------------------4--5--7----------------|
--------------o|||o------------------4--5--7-------------------------|
---------------|||----------3--5--7----------------------------------|
---------------|||-3--5--7-------------------------------------------|


--7--8--7--5---------------------------------------||----------------|
--------------8--7--5------------------------------||----------------|
-----------------------7--5--4--------------------o||----------------|
--------------------------------7--5--4-----------o||----------------|
-----------------------------------------7--5--3---||----------------|
---------------------------------------------------||----------------|


----------------||----------------------------------------------7----|
----------------||-------------------------------------7--8--10------|
----------------||o---------------------------5--7--9----------------|
----------------||o------------------5--7--9-------------------------|
----------------||----------5--7--9----------------------------------|
----------------||-5--7--8-------------------------------------------|


--8--10-8--7---------------------------------------||----------------|
--------------10-8--7------------------------------||----------------|
-----------------------9--7--5--------------------o||----------------|
--------------------------------9--7--5-----------o||----------------|
-----------------------------------------9--7--5---||----------------|
---------------------------------------------------||----------------|


----------------||----------------------------------------------8----|
----------------||-------------------------------------8--10-12------|
----------------||o---------------------------7--9--11---------------|
----------------||o------------------7--9--10------------------------|
----------------||----------7--9--10---------------------------------|
----------------||-7--8--10------------------------------------------|


--10-12-10-8---------------------------------------||----------------|
--------------12-10-8------------------------------||----------------|
-----------------------11-9--7--------------------o||----------------|
--------------------------------10-9--7-----------o||----------------|
-----------------------------------------10-9--7---||----------------|
---------------------------------------------------||----------------|


----------------||----------------------------------------------10---|
----------------||-------------------------------------10-12-13------|
----------------||o---------------------------9--11-12---------------|
----------------||o------------------9--10-12------------------------|
----------------||----------9--10-12---------------------------------|
----------------||-8--10-12------------------------------------------|


--12-14-12-10--------------------------------------||----------------|
--------------13-12-10-----------------------------||----------------|
-----------------------12-11-9--------------------o||----------------|
--------------------------------12-10-9-----------o||----------------|
-----------------------------------------12-10-9---||----------------|
---------------------------------------------------||----------------|


----------------||----------------------------------------------12---|
----------------||-------------------------------------12-13-15------|
----------------||o---------------------------11-12-14---------------|
----------------||o------------------10-12-14------------------------|
----------------||----------10-12-14---------------------------------|
----------------||-10-12-14------------------------------------------|


--14-15-14-12--------------------------------------||----------------|
--------------15-14-12-----------------------------||----------------|
-----------------------14-12-11-------------------o||----------------|
--------------------------------14-12-10----------o||----------------|
-----------------------------------------14-12-10--||----------------|
---------------------------------------------------||----------------|


----------------||----------------------------------------------14---|
----------------||-------------------------------------13-15-17------|
----------------||o---------------------------12-14-16---------------|
----------------||o------------------12-14-16------------------------|
----------------||----------12-14-15---------------------------------|
----------------||-12-14-15------------------------------------------|


--15-17-15-14--------------------------------------||----------------|
--------------17-15-13-----------------------------||----------------|
-----------------------16-14-12-------------------o||----------------|
--------------------------------16-14-12----------o||----------------|
-----------------------------------------15-14-12--||----------------|
---------------------------------------------------||----------------|


----------------|-----------------------------------------------14---|
----------------|--------------------------------------13-15-17------|
----------------|-----------------------------12-14-16---------------|
----------------|--------------------12-14-16------------------------|
----------------|-----------12-14-15---------------------------------|
----------------|--12-14-15------------------------------------------|


--15-17-15-14---------------------------------------|
--------------17-15-13------------------------------|
-----------------------16-14-12---------------------|
--------------------------------16-14-12------------|
-----------------------------------------15-14-12---|
----------------------------------------------------|


-----------------------------------------------12---|
--------------------------------------12-13-15------|
-----------------------------11-12-14---------------|
--------------------10-12-14------------------------|
-----------10-12-14---------------------------------|
--10-12-14------------------------------------------|


--14-15-14-12---------------------------------------|
--------------15-14-12------------------------------|
-----------------------14-12-11---------------------|
--------------------------------14-12-10------------|
-----------------------------------------14-12-10---|
----------------------------------------------------|


-----------------------------------------------10---|
--------------------------------------10-12-13------|
-----------------------------9--11-12---------------|
--------------------9--10-12------------------------|
-----------9--10-12---------------------------------|
--8--10-12------------------------------------------|


--12-14-12-10---------------------------------------|
--------------13-12-10------------------------------|
-----------------------12-11-9----------------------|
--------------------------------12-10-9-------------|
-----------------------------------------12-10-9----|
----------------------------------------------------|


-----------------------------------------------8----|
--------------------------------------8--10-12------|
-----------------------------7--9--11---------------|
--------------------7--9--10------------------------|
-----------7--9--10---------------------------------|
--7--8--10------------------------------------------|


--10-12-10-8----------------------------------------|
--------------12-10-8-------------------------------|
-----------------------11-9--7----------------------|
--------------------------------10-9--7-------------|
-----------------------------------------10-9--7----|
----------------------------------------------------|


-----------------------------------------------7----|
--------------------------------------7--8--10------|
-----------------------------5--7--9----------------|
--------------------5--7--9-------------------------|
-----------5--7--9----------------------------------|
--5--7--8-------------------------------------------|


--8--10-8--7----------------------------------------|
--------------10-8--7-------------------------------|
-----------------------9--7--5----------------------|
--------------------------------9--7--5-------------|
-----------------------------------------9--7--5----|
----------------------------------------------------|


-----------------------------------------------5----|
--------------------------------------5--7--8-------|
-----------------------------4--5--7----------------|
--------------------4--5--7-------------------------|
-----------3--5--7----------------------------------|
--3--5--7-------------------------------------------|


--7--8--7--5----------------------------------------||
--------------8--7--5-------------------------------||
-----------------------7--5--4----------------------||
--------------------------------7--5--4-------------||
-----------------------------------------7--5--3----||
----------------------------------------------------||


----------------------------------------------3----|
-------------------------------------3--5--7-------|
o---------------------------2--4--5----------------|
o------------------2--4--5-------------------------|
----------2--3--5----------------------------------|
-2--3--5-------------------------------------------|


--5--7--5--3---------------------------------------|||
--------------7--5--3------------------------------|||
-----------------------5--4--2--------------------o|||
--------------------------------5--4--2-----------o|||
-----------------------------------------5--3--2---|||
---------------------------------------------------|||


----------------------------------------------7----|
-------------------------------------7--8--10------|
o---------------------------5--7--9----------------|
o------------------5--7--9-------------------------|
----------5--7--9----------------------------------|
-5--7--8-------------------------------------------|


--8--10-8--7---------------------------------------|||
--------------10-8--7------------------------------|||
-----------------------9--7--5--------------------o|||
--------------------------------9--7--5-----------o|||
-----------------------------------------9--7--5---|||
---------------------------------------------------|||


----------------------------------------------8----|
-------------------------------------8--10-12------|
o---------------------------7--9--11---------------|
o------------------7--9--10------------------------|
----------7--9--10---------------------------------|
-7--8--10------------------------------------------|


--10-12-10-8---------------------------------------|||
--------------12-10-8------------------------------|||
-----------------------11-9--7--------------------o|||
--------------------------------10-9--7-----------o|||
-----------------------------------------10-9--7---|||
---------------------------------------------------|||


----------------------------------------------5----|
-------------------------------------5--7--8-------|
o---------------------------4--5--7----------------|
o------------------4--5--7-------------------------|
----------3--5--7----------------------------------|
-3--5--7-------------------------------------------|


--7--8--7--5---------------------------------------|||
--------------8--7--5------------------------------|||
-----------------------7--5--4--------------------o|||
--------------------------------7--5--4-----------o|||
-----------------------------------------7--5--3---|||
---------------------------------------------------|||


----------------------------------------------12---|
-------------------------------------12-13-15------|
o---------------------------11-12-14---------------|
o------------------10-12-14------------------------|
----------10-12-14---------------------------------|
-10-12-14------------------------------------------|


--14-15-14-12--------------------------------------|||
--------------15-14-12-----------------------------|||
-----------------------14-12-11-------------------o|||
--------------------------------14-12-10----------o|||
-----------------------------------------14-12-10--|||
---------------------------------------------------|||


----------------------------------------------14---|
-------------------------------------13-15-17------|
o---------------------------12-14-16---------------|
o------------------12-14-16------------------------|
----------12-14-15---------------------------------|
-12-14-15------------------------------------------|


--15-17-15-14--------------------------------------||
--------------17-15-13-----------------------------||
-----------------------16-14-12-------------------o||
--------------------------------16-14-12----------o||
-----------------------------------------15-14-12--||
---------------------------------------------------||


-----------------------------------------------3----|
--------------------------------------3--5--7-------|
-----------------------------2--4--5----------------|
--------------------2--4--5-------------------------|
-----------2--3--5----------------------------------|
--2--3--5-------------------------------------------|


--5--7--5--3----------------------------------------|-------||
--------------7--5--3-------------------------------|-------||
-----------------------5--4--2----------------------|-------||
--------------------------------5--4--2-------------|-------||
-----------------------------------------5--3--2----|-------||
----------------------------------------------------|--3----||


Attached File  Scales_workout.gp5 ( 8.99K ) Number of downloads: 18


After mastering those all you will have to do is move the position and you will get the same mode in different key
Let me know if you have any questions or need help with anything!


--------------------
Go to the top of the page
 
+Quote Post

5 Pages V  « < 3 4 5
Reply to this topicStart new topic
1 User(s) are reading this topic (1 Guests and 0 Anonymous Users)
0 Members:

 


RSS Lo-Fi Version Time is now: 24th May 2017 - 03:32 AM