Reply to this topicStart new topic
> Video Chat About Harmonic Minor, April 22nd 4pm London Time! Part 2 (arpeggios)
Alex Feather
post Apr 22 2012, 09:33 AM
Post #1


Instructor
Group Icon

Group: GMC Instructor
Posts: 4.332
Joined: 21-November 11
From: Los Angeles
Member No.: 14.398



Hi guys in this video chat we will be talking about harmonic minor arpeggios and how to use them on a daily basis!
I will explain where is diminished and augmented chords are coming from!
Names of tomorrow arpeggios:
B7 Cmaj7 D#dim7 Eminmaj7 F#m7b5 Gmaj7#5 Amin7

Here is the tab:

E |--------------------2--5----|--7--5--2-------------------|
B |-----------------4----------|-----------4----------------|
G |-----------2--4-------------|--------------4--2----------|
D |-----1--4-------------------|--------------------4--1----|
A |--2-------------------------|----------------------------|
E |----------------------------|----------------------------|


--------------------3--7----|--8--7--3-------------------|
-----------------5----------|-----------5----------------|
-----------4--5-------------|--------------5--4----------|
--------5-------------------|--------------------5-------|
--3--7----------------------|-----------------------7----|
----------------------------|----------------------------|


--------------------5--8----|--11-8--5-------------------|
-----------------7----------|-----------7----------------|
-----------5--8-------------|--------------8--5----------|
--------7-------------------|--------------------7-------|
--6--9----------------------|-----------------------9----|
----------------------------|----------------------------|


--------------------7--11---|--12-11-7-------------------|
-----------------8----------|-----------8----------------|
-----------8--9-------------|--------------9--8----------|
--------9-------------------|--------------------9-------|
--7--10---------------------|-----------------------10---|
----------------------------|----------------------------|


--------------------8--12---|--14-12-8-------------------|
-----------------10---------|-----------10---------------|
-----------9--11------------|--------------11-9----------|
--------10------------------|--------------------10------|
--9--12---------------------|-----------------------12---|
----------------------------|----------------------------|


--------------------11-14---|--15-14-11------------------|
-----------------12---------|-----------12---------------|
-----------11-12------------|--------------12-11---------|
--------13------------------|--------------------13------|
--10-14---------------------|-----------------------14---|
----------------------------|----------------------------|


--------------------12-15---|--17-15-12------------------|-------||
-----------------13---------|-----------13---------------|-------||
-----------12-14------------|--------------14-12---------|-------||
--------14------------------|--------------------14------|-------||
--12-15---------------------|-----------------------15---|--12---||
----------------------------|----------------------------|-------||


Attached File  Harmonic_minor_.gp5 ( 2.88K ) Number of downloads: 32


See you at 4 PM!!!


--------------------
Go to the top of the page
 
+Quote Post

Fast ReplyReply to this topicStart new topic
1 User(s) are reading this topic (1 Guests and 0 Anonymous Users)
0 Members:

 


RSS Lo-Fi Version Time is now: 28th May 2017 - 07:45 PM