Reply to this topicStart new topic
> Harmonic Minor Part 3 Video Chat 4 Pm London Time (harmonic Minor Pentatonics)
Alex Feather
post Apr 29 2012, 08:18 AM
Post #1


Instructor
Group Icon

Group: GMC Instructor
Posts: 4.332
Joined: 21-November 11
From: Los Angeles
Member No.: 14.398



Hi guys! In the harmonic minor video chat part 3 we will be talking about harmonic minor pentatonics and how to use them!!!
I also will continue talking about Diminished scale and how to use it!!! See you at 4 PM London time!!!! smile.gif
Here is the tab E harmonic minor pentatonics:
E |--5--3----------------------|----------------------------|
B |--------5--4----------------|----------------------------|
G |--------------4--2----------|----------------------------|
D |--------------------5--2----|-----------------------2----|
A |----------------------------|--6--2-----------2--6-------|
E |----------------------------|--------5--3--5-------------|


-----------------3--5L-5----|----|--7--5----------------------|
-----------4--5-------------|----|--------8--5----------------|
-----2--4-------------------|----|--------------8--4----------|
--5-------------------------|----|--------------------7--5----|
----------------------------|----|----------------------------|
----------------------------|----|----------------------------|


----------------------------|-----------------5--7L-7----|----|
----------------------------|-----------5--8-------------|----|
----------------------------|-----4--8-------------------|----|
-----------------------5----|--7-------------------------|----|
--7--6-----------6--7-------|----------------------------|----|
--------7--5--7-------------|----------------------------|----|


--11-7----------------------|----------------------------|
--------10-8----------------|----------------------------|
--------------9--8----------|----------------------------|
--------------------9--7----|-----------------------7----|
----------------------------|--10-7-----------7--10------|
----------------------------|--------11-7--11------------|


-----------------7--11L11---|----|--12-11---------------------|
-----------8--10------------|----|--------12-10---------------|
-----8--9-------------------|----|--------------12-9----------|
--9-------------------------|----|--------------------13-9----|
----------------------------|----|----------------------------|
----------------------------|----|----------------------------|


----------------------------|-----------------11-12L12---|----|
----------------------------|-----------10-12------------|----|
----------------------------|-----9--12------------------|----|
-----------------------9----|--13------------------------|----|
--12-10----------10-12------|----------------------------|----|
--------12-11-12------------|----------------------------|----|


--15-12---------------------|----------------------------|
--------16-12---------------|----------------------------|
--------------14-12---------|----------------------------|
--------------------14-13---|-----------------------13---|
----------------------------|--14-12----------12-14------|
----------------------------|--------15-12-15------------|


-----------------12-15L15---|----||
-----------12-16------------|----||
-----12-14------------------|----||
--14------------------------|----||
----------------------------|----||
----------------------------|----||

Attached File  Harmonic_minor_pentatonics.gp5 ( 2.97K ) Number of downloads: 84


--------------------
Go to the top of the page
 
+Quote Post

Fast ReplyReply to this topicStart new topic
1 User(s) are reading this topic (1 Guests and 0 Anonymous Users)
0 Members:

 


RSS Lo-Fi Version Time is now: 21st July 2017 - 05:44 PM