5 Pages V  < 1 2 3 4 5 >  
Reply to this topicStart new topic
> Bascuthach Guitar Mentoring
Bas Cuthach
post Jun 24 2012, 03:10 PM
Post #41


GMC:er
*

Group: Members
Posts: 207
Joined: 28-April 12
From: Redding California
Member No.: 15.756



QUOTE (Alex Feather @ Jun 23 2012, 11:49 PM) *
Ok I will prepare a few licks for you in a couple of hours!
What do you mean name change?


I thought you changed because you said the thread was updated and I saw "Not everything is ROCK 'N ROLL..."
and thought you changed the name, I see the name is the same biggrin.gif

I have subscribed to this thread so I will see when there is something new
and Im looking forward to learning the licks as I dont know blues licks biggrin.gif

This post has been edited by Bas Cuthach: Jun 24 2012, 03:11 PM
Go to the top of the page
 
+Quote Post
Alex Feather
post Jun 24 2012, 06:27 PM
Post #42


Instructor
Group Icon

Group: GMC Instructor
Posts: 4.332
Joined: 21-November 11
From: Los Angeles
Member No.: 14.398



QUOTE (Bas Cuthach @ Jun 24 2012, 02:10 PM) *
I thought you changed because you said the thread was updated and I saw "Not everything is ROCK 'N ROLL..."
and thought you changed the name, I see the name is the same biggrin.gif

I have subscribed to this thread so I will see when there is something new
and Im looking forward to learning the licks as I dont know blues licks biggrin.gif

I actually have a great lesson that you can take licks from!
https://www.guitarmasterclass.net/ls/Blues-Turnarounds/
Attached File  15_Blues_Licks_tab.gp5 ( 5.77K ) Number of downloads: 43


E |--10b---10b---10-8----------|
B |--------------------10-8----|
G |----------------------------|
D |----------------------------|
A |----------------------------|
E |----------------------------|


--------8-------------------------------------------|
--10----------10----8--10L---------10L---------10---|
----------------------------------------------------|
----------------------------------------------------|
----------------------------------------------------|
----------------------------------------------------|


--------5-------------------|----------------------------|
-----5-----5--8--5----------|----------------------------|
--7b----------------7--5----|--7b-7--5-------------------|
----------------------------|-----------7L----7----------|
----------------------------|----------------------------|
----------------------------|----------------------------|


----------------------------|----------------------------|
----------------------------|-----------------8b-8-------|
----------------------------|-----------7--9-------------|
-----5--7--6b-6--5----------|-----5--9-------------------|
--7-----------------7--5----|--7-------------------------|
----------------------------|----------------------------|


--------8-----10----10s12-8-----10s12-8-----10s12---|
--10------------------------------------------------|
----------------------------------------------------|
----------------------------------------------------|
----------------------------------------------------|
----------------------------------------------------|


--8-------------------------|--------7--------8----------|
-----10-8--10b10-8----------|-----8--------8-----8--10---|
--------------------9-------|--9--------9----------------|
----------------------------|----------------------------|
----------------------------|----------------------------|
----------------------------|----------------------------|


----------------------------|--------5--8b-8--5----------|
--8-------------------------|-----5----------------------|
-----7--9--7--5--7--5-------|--5-------------------------|
-----------------------7----|----------------------------|
----------------------------|----------------------------|
----------------------------|----------------------------|


----------------------------------------------------|
----------------------------------------------------|
--7b----------7b----------7b----------7b----7--5----|
----------------------------------------------------|
----------------------------------------------------|
----------------------------------------------------|


----------------------------|
----------------------------|
--7--5--5b-5b---------------|
--------------7-------------|
----------------------------|
----------------------------|


----------------------------------------------------|
----------------------------------------------------|
--7--5--------8--5--------9--5--------8--5----------|
--------7--5--------7--5--------7--5--------7--5----|
----------------------------------------------------|
----------------------------------------------------|


----------------------------------------------------|-------|
----------------------------------------------------|-------|
--7--5--------8--5--------9--5--------8--5----------|-------|
--------7--5--------7--5--------7--5--------7--5----|--7----|
----------------------------------------------------|-------|
----------------------------------------------------|-------|


--8--5--------10-8----------------------------------|
--------8--5--------10-8--8--5--------10-8----------|
--------------------------------7--5--------9--7----|
----------------------------------------------------|
----------------------------------------------------|
----------------------------------------------------|


--8--5--------10-8----------------------------------|-------|
--------8--5--------10-8--8--5--------10-8----------|-------|
--------------------------------7--5--------9--7----|--9----|
----------------------------------------------------|-------|
----------------------------------------------------|-------|
----------------------------------------------------|-------|


-----------------5--8--5----|----------------------------|-------|
-----------5--8-------------|--8--5----------------------|-------|
--5--7--8-------------------|--------8--7--6--5----------|-------|
----------------------------|--------------------7--5----|--7----|
----------------------------|----------------------------|-------|
----------------------------|----------------------------|-------|


-----7--5-------------------|----------------------------|--10b10b10-8----|
--7--------7--10b10-8--7b---|--7-------------------------|----------------|
----------------------------|-----7--9-------------------|----------------|
----------------------------|----------------------------|----------------|
----------------------------|----------------------------|----------------|
----------------------------|----------------------------|----------------|


----------------------------------------------------|
--10----------8-----8--10----------10L---------10---|
----------------------------------------------------|
----------------------------------------------------|
----------------------------------------------------|
----------------------------------------------------|


----------------------------------------------------|
----------------------------------------------------|
--------------------------------------------5-------|
--------------------------5-----5--7--5--7-----7----|
--------5-----5--7--5--7-----7----------------------|
--5--8-----7----------------------------------------|


--------------------------------5-----5--8L-8-------|
--------------5-----5--8--5--8-----8----------------|
--5--7--5--7-----7----------------------------------|
----------------------------------------------------|
----------------------------------------------------|
----------------------------------------------------|


--8--5----------------------------------------------|
--------8--5--------8--5----------------------------|
--------------7--5--------7--5--------7--5----------|
--------------------------------7--5--------7--5----|
----------------------------------------------------|
----------------------------------------------------|


----------------------------------------------------|
----------------------------------------------------|
----------------------------------------------------|
--------7--5----------------------------------------|
--7--5--------7--5----------------------------------|
--------------------8--5L-5-------------------------|


--------------------5--8----|--5-------------------------|-------|
--------------5--8----------|-----8--5--8b-8--5----------|-------|
--------5--8----------------|--------------------9--7----|-------|
--5--8----------------------|----------------------------|--7----|
----------------------------|----------------------------|-------|
----------------------------|----------------------------|-------|


-----------8--10-8--7-------|
--8--9--10-------------8----|
----------------------------|
----------------------------|
----------------------------|
----------------------------|


----------------------------------------------------|----------------|
--------8-----8s-10L---10L---------------------10---|----------------|
--9-------------------------------------------------|----------------|
----------------------------------------------------|----------------|
----------------------------------------------------|----------------|
----------------------------------------------------|----------------|


----------------|----------------||
----------------|----------------||
----------------|----------------||
----------------|----------------||
----------------|----------------||
----------------|----------------||


All lick will work over the backing track I gave you!
Let me know if you have any questions or need help!


--------------------
Go to the top of the page
 
+Quote Post
Alex Feather
post Jul 1 2012, 02:49 AM
Post #43


Instructor
Group Icon

Group: GMC Instructor
Posts: 4.332
Joined: 21-November 11
From: Los Angeles
Member No.: 14.398



QUOTE (Bas Cuthach @ Jun 24 2012, 02:10 PM) *
I thought you changed because you said the thread was updated and I saw "Not everything is ROCK 'N ROLL..."
and thought you changed the name, I see the name is the same biggrin.gif

I have subscribed to this thread so I will see when there is something new
and Im looking forward to learning the licks as I dont know blues licks biggrin.gif

Hi! I just wanted to check and see if you have any questions about the licks! Let me know!


--------------------
Go to the top of the page
 
+Quote Post
Bas Cuthach
post Jul 1 2012, 03:52 AM
Post #44


GMC:er
*

Group: Members
Posts: 207
Joined: 28-April 12
From: Redding California
Member No.: 15.756



Sorry I have not gotten back to you, ever since I took up the band I have been busy learning new songs, once I have them down I can get back to doing this stuff, most the stuff Im learning is chord changes with rhythm and a few licks, plus my friend that asked me to join the band has been teaching me theory, Im starting to get my practice routine back on track, thanks for checking up on me and thanks for telling me to stay with the band wink.gif
Go to the top of the page
 
+Quote Post
Alex Feather
post Jul 2 2012, 06:27 AM
Post #45


Instructor
Group Icon

Group: GMC Instructor
Posts: 4.332
Joined: 21-November 11
From: Los Angeles
Member No.: 14.398



QUOTE (Bas Cuthach @ Jul 1 2012, 02:52 AM) *
Sorry I have not gotten back to you, ever since I took up the band I have been busy learning new songs, once I have them down I can get back to doing this stuff, most the stuff Im learning is chord changes with rhythm and a few licks, plus my friend that asked me to join the band has been teaching me theory, Im starting to get my practice routine back on track, thanks for checking up on me and thanks for telling me to stay with the band wink.gif

Of course! I am glad you are in a band! Take your time and kick some major butt!!! smile.gif
Let me know when you are ready!


--------------------
Go to the top of the page
 
+Quote Post
Alex Feather
post Jul 7 2012, 05:48 AM
Post #46


Instructor
Group Icon

Group: GMC Instructor
Posts: 4.332
Joined: 21-November 11
From: Los Angeles
Member No.: 14.398



QUOTE (Bas Cuthach @ Jul 1 2012, 02:52 AM) *
Sorry I have not gotten back to you, ever since I took up the band I have been busy learning new songs, once I have them down I can get back to doing this stuff, most the stuff Im learning is chord changes with rhythm and a few licks, plus my friend that asked me to join the band has been teaching me theory, Im starting to get my practice routine back on track, thanks for checking up on me and thanks for telling me to stay with the band wink.gif

Hi! How s your band doing??? Just wanted to follow up and see if you need help with anything? We can work on your solos that you have to play in the band or I can help you arrange some guitar parts! Let me know!


--------------------
Go to the top of the page
 
+Quote Post
Bas Cuthach
post Jul 7 2012, 04:54 PM
Post #47


GMC:er
*

Group: Members
Posts: 207
Joined: 28-April 12
From: Redding California
Member No.: 15.756



its been a lot of fun, I have learned a lot of new things, the songs are preset and the band leader has been teaching me them and says I sound great and is doing a great job, as this account is paid up till some time next year I would hate to see it go to waste and the miles is eating a hole in my wallet, I have some thinking to do, thanks for stopping by and I hope to get recordings as I still have to learn the licks and do the lessons

This post has been edited by Bas Cuthach: Jul 7 2012, 04:55 PM
Go to the top of the page
 
+Quote Post
Alex Feather
post Jul 8 2012, 01:15 AM
Post #48


Instructor
Group Icon

Group: GMC Instructor
Posts: 4.332
Joined: 21-November 11
From: Los Angeles
Member No.: 14.398



QUOTE (Bas Cuthach @ Jul 7 2012, 03:54 PM) *
its been a lot of fun, I have learned a lot of new things, the songs are preset and the band leader has been teaching me them and says I sound great and is doing a great job, as this account is paid up till some time next year I would hate to see it go to waste and the miles is eating a hole in my wallet, I have some thinking to do, thanks for stopping by and I hope to get recordings as I still have to learn the licks and do the lessons

Perfect! Sounds good! I am glad your band is doing great keep it up!
Let me know if you need help with anything! smile.gif


--------------------
Go to the top of the page
 
+Quote Post
Bas Cuthach
post Jul 20 2012, 02:59 PM
Post #49


GMC:er
*

Group: Members
Posts: 207
Joined: 28-April 12
From: Redding California
Member No.: 15.756



Here is what I have been working on, http://www.musictheory.net/lessons , I have gone through and am currently in the middle of introduction to chords
Go to the top of the page
 
+Quote Post
Alex Feather
post Jul 20 2012, 06:34 PM
Post #50


Instructor
Group Icon

Group: GMC Instructor
Posts: 4.332
Joined: 21-November 11
From: Los Angeles
Member No.: 14.398



QUOTE (Bas Cuthach @ Jul 20 2012, 01:59 PM) *
Here is what I have been working on, http://www.musictheory.net/lessons , I have gone through and am currently in the middle of introduction to chords

That is very good you learning theory!
Do you have any questions?
I have never heard about this website! If you would like we can start to get into theory step by step and I will explain you everything in details!
Let me know !


--------------------
Go to the top of the page
 
+Quote Post
Alex Feather
post Jul 23 2012, 06:19 PM
Post #51


Instructor
Group Icon

Group: GMC Instructor
Posts: 4.332
Joined: 21-November 11
From: Los Angeles
Member No.: 14.398



I just wanted to follow up and see how are you doing? I can start explaining you theory little by little if you want! Let me know!


--------------------
Go to the top of the page
 
+Quote Post
Bas Cuthach
post Jul 23 2012, 09:55 PM
Post #52


GMC:er
*

Group: Members
Posts: 207
Joined: 28-April 12
From: Redding California
Member No.: 15.756



http://www.musictheory.net/lessons explains things really good, I took a break and worked the Jukebox festival here in Anderson California, I am kinda taking a break for a couple days to relax from work, you can create a quiz from what I have learned so far, I know that I will have to go back over things as a refresher

This post has been edited by Bas Cuthach: Jul 23 2012, 09:56 PM
Go to the top of the page
 
+Quote Post
Alex Feather
post Jul 25 2012, 05:59 PM
Post #53


Instructor
Group Icon

Group: GMC Instructor
Posts: 4.332
Joined: 21-November 11
From: Los Angeles
Member No.: 14.398



QUOTE (Bas Cuthach @ Jul 23 2012, 08:55 PM) *
http://www.musictheory.net/lessons explains things really good, I took a break and worked the Jukebox festival here in Anderson California, I am kinda taking a break for a couple days to relax from work, you can create a quiz from what I have learned so far, I know that I will have to go back over things as a refresher

Oh cool! I am in California too! smile.gif
I can create a quiz for you but I am not sure what have you learned? Let me know and I will have it ready! smile.gif


--------------------
Go to the top of the page
 
+Quote Post
Bas Cuthach
post Jul 31 2012, 04:54 PM
Post #54


GMC:er
*

Group: Members
Posts: 207
Joined: 28-April 12
From: Redding California
Member No.: 15.756



Change of Plans, music appreciation, what is it, what should I know, who is who and what is what, you post youtube videos and I listen and watch, also I can research to and we can discuss what I find smile.gif sound good?
Go to the top of the page
 
+Quote Post
Alex Feather
post Jul 31 2012, 07:08 PM
Post #55


Instructor
Group Icon

Group: GMC Instructor
Posts: 4.332
Joined: 21-November 11
From: Los Angeles
Member No.: 14.398



QUOTE (Bas Cuthach @ Jul 31 2012, 03:54 PM) *
Change of Plans, music appreciation, what is it, what should I know, who is who and what is what, you post youtube videos and I listen and watch, also I can research to and we can discuss what I find smile.gif sound good?

Can you please explain in more details? I am not sure what exactly you are looking for!


--------------------
Go to the top of the page
 
+Quote Post
Bas Cuthach
post Jul 31 2012, 07:51 PM
Post #56


GMC:er
*

Group: Members
Posts: 207
Joined: 28-April 12
From: Redding California
Member No.: 15.756



learning and understanding music in different era's, styles how they became, songs, stuff like that, Beethoven, Mozart, just to name a few, before them and after them, I have a book with a few I can check out to and I can post about them to, this will help me build my style, even create licks in the they style of
Go to the top of the page
 
+Quote Post
Alex Feather
post Aug 1 2012, 05:55 AM
Post #57


Instructor
Group Icon

Group: GMC Instructor
Posts: 4.332
Joined: 21-November 11
From: Los Angeles
Member No.: 14.398



QUOTE (Bas Cuthach @ Jul 31 2012, 06:51 PM) *
learning and understanding music in different era's, styles how they became, songs, stuff like that, Beethoven, Mozart, just to name a few, before them and after them, I have a book with a few I can check out to and I can post about them to, this will help me build my style, even create licks in the they style of

So as I understood you want me to introduce you to composers from different eras and help you to create licks based on their music?


--------------------
Go to the top of the page
 
+Quote Post
Bas Cuthach
post Aug 1 2012, 04:19 PM
Post #58


GMC:er
*

Group: Members
Posts: 207
Joined: 28-April 12
From: Redding California
Member No.: 15.756



ya something like that
Go to the top of the page
 
+Quote Post
Alex Feather
post Aug 1 2012, 06:01 PM
Post #59


Instructor
Group Icon

Group: GMC Instructor
Posts: 4.332
Joined: 21-November 11
From: Los Angeles
Member No.: 14.398



QUOTE (Bas Cuthach @ Aug 1 2012, 03:19 PM) *
ya something like that

Hmmmm ok! Give me a few days to get it together! You challenged me now! LOL


--------------------
Go to the top of the page
 
+Quote Post
Bas Cuthach
post Aug 3 2012, 02:02 AM
Post #60


GMC:er
*

Group: Members
Posts: 207
Joined: 28-April 12
From: Redding California
Member No.: 15.756



Something I wrote today

http://soundcloud.com/bascuthach/creations-1
Go to the top of the page
 
+Quote Post

5 Pages V  < 1 2 3 4 5 >
Reply to this topicStart new topic
2 User(s) are reading this topic (2 Guests and 0 Anonymous Users)
0 Members:

 


RSS Lo-Fi Version Time is now: 27th March 2017 - 01:54 AM