Reply to this topicStart new topic
>  carmine Guitar Mentoring No.2
carminemarotta
post May 9 2012, 10:59 PM
Post #1


GMC:er
*

Group: Members
Posts: 409
Joined: 18-June 09
From: Surrey, UK
Member No.: 7.293



Hi Alex,
Did you see the title of this message?
We started few weeks ago but many things have changed. In this time I neglected your mentoring and I concentrated on the beginner staff with few videos on the REC program.
So it is time to start seriously now: can we? And can we start from scratch? Can you make me a blues/rock/pop bedroom player?

Thanks in advance
Carmine

PS and I want to play Bossa (Jobim and Gilberto style) too
Go to the top of the page
 
+Quote Post
Alex Feather
post May 11 2012, 04:38 PM
Post #2


Instructor
Group Icon

Group: GMC Instructor
Posts: 4.332
Joined: 21-November 11
From: Los Angeles
Member No.: 14.398



QUOTE (carminemarotta @ May 9 2012, 09:59 PM) *
Hi Alex,
Did you see the title of this message?
We started few weeks ago but many things have changed. In this time I neglected your mentoring and I concentrated on the beginner staff with few videos on the REC program.
So it is time to start seriously now: can we? And can we start from scratch? Can you make me a blues/rock/pop bedroom player?

Thanks in advance
Carmine

PS and I want to play Bossa (Jobim and Gilberto style) too

Hi! Welcome back! You can take your time with learning and there is no dead line!!!
I absolutely can help you with becoming a better blues/rock/pop player!
Let's start with a very cool exercise that will help you develop your timing and picking!
Make sure to practice it slow using a metronome! You can also add it to your daily warm up routine!
Here is the tab!

E ||---------------------------|----------------------------------------|
B ||---------------------------|----------------------------------------|
G ||o5--5--5--5--5--5--5--5----|--5--5--5--5--5--5--5--5--5--5--5--5----|
D ||o--------------------------|----------------------------------------|
A ||---------------------------|----------------------------------------|
E ||---------------------------|----------------------------------------|


----------------------------|---------------------------------------|||
----------------------------|---------------------------------------|||
--5--5--5--5--5--5--5--5----|--5--5--5--5--5--5--5--5--5--5--5--5--o|||
----------------------------|--------------------------------------o|||
----------------------------|---------------------------------------|||
----------------------------|---------------------------------------|||


-------------3--3----------|--------------3--3----------|
-------4--4--------4--4----|--------4--4--------4--4----|
o5--5----------------------|--5--5----------------------|
o--------------------------|----------------------------|
---------------------------|----------------------------|
---------------------------|----------------------------|


--------------3--3----------|--------------3--3---------|||
--------4--4--------4--4----|--------4--4--------4--4---|||
--5--5----------------------|--5--5--------------------o|||
----------------------------|--------------------------o|||
----------------------------|---------------------------|||
----------------------------|---------------------------|||


-6--3----------------------|--6--3----------------------|
----------4--6--3----------|-----------4--6--3----------|
o------5-----------5--3----|--------5-----------5--3----|
o--------------------------|----------------------------|
---------------------------|----------------------------|
---------------------------|----------------------------|


--6--3----------------------|--6--3---------------------|||
-----------4--6--3----------|-----------4--6--3---------|||
--------5-----------5--3----|--------5-----------5--3--o|||
----------------------------|--------------------------o|||
----------------------------|---------------------------|||
----------------------------|---------------------------|||


-6--3--------------------6--3----------------------|
----------4--6--3-----------------4--6--3----------|
o------5-----------5--3--------5-----------5--3----|
o--------------------------------------------------|
---------------------------------------------------|
---------------------------------------------------|


--6--3--------------6--3----------------|
--------4-----------------4-------------|
-----------5--4--3-----------5--4--3----|
----------------------------------------|
----------------------------------------|
----------------------------------------|


--6--3--------------------6--3----------------------|
-----------4--6--3-----------------4--6--3----------|
--------5-----------5--3--------5-----------5--3----|
----------------------------------------------------|
----------------------------------------------------|
----------------------------------------------------|


--6--3--------------6--3---------------|||
--------4-----------------4------------|||
-----------5--4--3-----------5--4--3--o|||
--------------------------------------o|||
---------------------------------------|||
---------------------------------------|||


-6--4--3-------------------------------------------|
-------------------6--4--3-------------------------|
o---------7--5--3--------------------7--5--3-------|
o---------------------------6--5--3----------------|
----------------------------------------------6----|
---------------------------------------------------|


----------------------------------------------------|
----------------------------------------------------|
----------------------------------------------------|
--------6--5--3-----------------------------3--5----|
--5--3-----------------------------3--5--6----------|
-----------------6--4--3--3--4--6-------------------|


-----------------------4--6--8--3--4--6-------------|
--------------4--6--8--------------------3--4--6----|
-----3--5--7----------------------------------------|
--6-------------------------------------------------|
----------------------------------------------------|
----------------------------------------------------|


--6--4--3-------------------------------------------|
--------------------6--4--3-------------------------|
-----------7--5--3--------------------7--5--3-------|
-----------------------------6--5--3----------------|
-----------------------------------------------6----|
----------------------------------------------------|


----------------------------------------------------|
----------------------------------------------------|
----------------------------------------------------|
--------6--5--3-----------------------------3--5----|
--5--3-----------------------------3--5--6----------|
-----------------6--4--3--3--4--6-------------------|


-----------------------4--6--8--3--4--6------------|||
--------------4--6--8--------------------3--4--6---|||
-----3--5--7--------------------------------------o|||
--6-----------------------------------------------o|||
---------------------------------------------------|||
---------------------------------------------------|||

Attached File  Hands_workout.gp5 ( 4.5K ) Number of downloads: 62

Let me know if you have any questions!


--------------------
Go to the top of the page
 
+Quote Post

Reply to this topicStart new topic
1 User(s) are reading this topic (1 Guests and 0 Anonymous Users)
0 Members:

 


RSS Lo-Fi Version Time is now: 27th May 2017 - 11:09 AM