Reply to this topicStart new topic
> Faceless Void Guitar Mentoring
Alex Feather
post May 12 2012, 05:28 AM
Post #1


Instructor
Group Icon

Group: GMC Instructor
Posts: 4.332
Joined: 21-November 11
From: Los Angeles
Member No.: 14.398



Hi! Welcome aboard! I am very happy that you have decided to join my program!
I have a few questions before we can start!
-What are your goals?
-What is your weakness?
-What is your strongest point?
-Your favorite guitar players?
I am very excited to start working with you!!! smile.gif


--------------------
Go to the top of the page
 
+Quote Post
Alex Feather
post May 16 2012, 05:00 PM
Post #2


Instructor
Group Icon

Group: GMC Instructor
Posts: 4.332
Joined: 21-November 11
From: Los Angeles
Member No.: 14.398



Hi! I have a very cool first exercise for you that will help you with alternative picking!
Here is the tab!
E |----------------------------|-----------------7--5--3----|
B |----------------------------|--------3--7--5-------------|
G |-----------------------5----|--4--2----------------------|
D |-----------5--4--2----------|----------------------------|
A |--------------------3-------|----------------------------|
E |--2--5--3-------------------|----------------------------|


--8--7--5-------------------|----------------------------|
-----------8--8--7--5-------|----------------------------|
-----------------------7----|--5--4----------------------|
----------------------------|--------7--5--4-------------|
----------------------------|-----------------7--5--3----|
----------------------------|----------------------------|


--------------------7--8----|--10------------------------|
----------------------------|-----7--8--10---------------|
----------------------------|-----------------------5----|
----------------------------|----------------------------|
----------------------------|--------------5--7--9-------|
--7--5--3--5--7--8----------|----------------------------|


----------------------------|-----------10-12-14-12-10---|
----------------------------|--10-12-13------------------|
--7--9-----------7--9--11---|----------------------------|
--------5--7--9-------------|----------------------------|
----------------------------|----------------------------|
----------------------------|----------------------------|


----------------------------|----------------------------|
--13-12-10------------------|-----------------------12---|
----------------------------|--------------9--11-12------|
----------------------------|-----9--10-12---------------|
--------------------9--10---|--12------------------------|
-----------8--10-12---------|----------------------------|


--------12-14-15-14---------|----------------------------|-------||
--13-15-------------17------|--13------------------------|-------||
----------------------------|--------14------------------|-------||
-----------------------12---|-----------17---------------|-------||
----------------------------|-----14---------------------|-------||
----------------------------|--------------17-15-14-15L--|--15---||

Attached File  G_major_scale.gp5 ( 2.59K ) Number of downloads: 54

It's a G major scale! But it will get a little tricky because of the positions and shapes!
Make sure to practice it at a very slow tempo using a metronome!
Let me know if you have any questions or need help!


--------------------
Go to the top of the page
 
+Quote Post
Alex Feather
post Jun 6 2012, 04:52 PM
Post #3


Instructor
Group Icon

Group: GMC Instructor
Posts: 4.332
Joined: 21-November 11
From: Los Angeles
Member No.: 14.398



Hello!
Here are the chords for the song!
Intro and the verse

F - Dmi - Bb - C

Pre Chorus

Dmi - C - Bb - C

Chorus
F - C - Dmi - Dmi - Ami - C

Those are the voicing they have used:
F


Dmi


Bb


C


Ami


The solo is based on D minor pentatonic in this position


Let me know if you have any questions or need help!


--------------------
Go to the top of the page
 
+Quote Post
Alex Feather
post Jun 22 2012, 07:16 AM
Post #4


Instructor
Group Icon

Group: GMC Instructor
Posts: 4.332
Joined: 21-November 11
From: Los Angeles
Member No.: 14.398



Hi I just wanted to follow up and see if you are ready for a new challenge! Let me know!


--------------------
Go to the top of the page
 
+Quote Post

Reply to this topicStart new topic
1 User(s) are reading this topic (1 Guests and 0 Anonymous Users)
0 Members:

 


RSS Lo-Fi Version Time is now: 25th July 2017 - 05:47 AM