Reply to this topicStart new topic
> Pedal Note?
Ryan
post Jun 9 2007, 12:51 AM
Post #1


GMC:er
*

Group: Members
Posts: 1.286
Joined: 14-March 07
From: Hutchinson, Kansas, USA
Member No.: 1.345



what is it...i here Satriani....talking about it all the time..on his lesson videos...but idk what it is!!!


--------------------
“Obey the principles without being bound by them.”
Go to the top of the page
 
+Quote Post
Andrew Cockburn
post Jun 9 2007, 12:57 AM
Post #2


Moderation Policy Director
Group Icon

Group: GMC Instructor
Posts: 10.459
Joined: 6-February 07
From: CT, USA
Member No.: 1.167



QUOTE (Ryan @ Jun 8 2007, 07:51 PM) *
what is it...i here Satriani....talking about it all the time..on his lesson videos...but idk what it is!!!


A pedal note is a bass note that stays the same throughout a chord sequence. So called because they used to refer to organists holding one of the bass pedals down.


--------------------
Check out my Instructor profile
Live long and prosper ...

My Stuff:

Electric Guitars : Ibanez Jem7v, Line6 Variax 700, Fender Plus Strat with 57/62 Pickups, Line6 Variax 705 Bass
Acoustic Guitars : Taylor 816ce, Martin D-15, Line6 Variax Acoustic 300 Nylon
Effects : Line6 Helix, Keeley Modded Boss DS1, Keeley Modded Boss BD2, Keeley 4 knob compressor, Keeley OxBlood
Amps : Epiphone Valve Jnr & Head, Cockburn A.C.1, Cockburn A.C.2, Blackstar Club 50 Head & 4x12 Cab
Go to the top of the page
 
+Quote Post
Ryan
post Jun 9 2007, 12:58 AM
Post #3


GMC:er
*

Group: Members
Posts: 1.286
Joined: 14-March 07
From: Hutchinson, Kansas, USA
Member No.: 1.345



ok thx...


--------------------
“Obey the principles without being bound by them.”
Go to the top of the page
 
+Quote Post
The Uncreator
post Jun 9 2007, 02:40 AM
Post #4


Fire Up The Blades, Moderator
Group Icon

Group: GMC Senior
Posts: 8.933
Joined: 6-March 07
From: St. Petersburg, Florida
Member No.: 1.304



|-------------------------------------------------------------------------------------------
|-------------------------------------------------------------------------------------------
|-------------------------------------------------------------------------------------------
|-----------------------------------7---------------------------------------------------7--
|------7-------9--------10------------10-9-7------------7-------9--------10------------
|-0-0----0-0-----0-0-------0-0---------------10--0-0-----0-0------0-0-------0-0------


All the open E Notes are the "Pedaled Note"

|------------------------------------------------12-14-15-14-12---------------------------------
|---------12-----------14----------15----------------------------15-13-12---------12----------14
|-12-12------12-12-------12-12-------12-12-------------------------------12-12------12-12---
|-----------------------------------------------------------------------------------------------------
|-----------------------------------------------------------------------------------------------------
|------------------------------------------------------------------------------------------------------
And in this one, the 12th fret of the g-string is the pedaled noted, see how this works yet?

This is the general idea.

This post has been edited by The Uncreator: Jun 9 2007, 02:41 AM
Go to the top of the page
 
+Quote Post
Ryan
post Jun 10 2007, 07:37 AM
Post #5


GMC:er
*

Group: Members
Posts: 1.286
Joined: 14-March 07
From: Hutchinson, Kansas, USA
Member No.: 1.345



ok im getting them now..tongue.gif


--------------------
“Obey the principles without being bound by them.”
Go to the top of the page
 
+Quote Post

Fast ReplyReply to this topicStart new topic
1 User(s) are reading this topic (1 Guests and 0 Anonymous Users)
0 Members:

 


RSS Lo-Fi Version Time is now: 27th July 2017 - 05:42 AM