Reply to this topicStart new topic
> Video Chat About Diminished Scale Tonight! 11 Pm Los Angles Time/2 Am New York Time
Alex Feather
post May 23 2012, 05:16 PM
Post #1


Instructor
Group Icon

Group: GMC Instructor
Posts: 4.332
Joined: 21-November 11
From: Los Angeles
Member No.: 14.398




we will harmonize C diminished scale

we will get those chords:
Cmi7 - Db diminished - Ebmi7 - Eb7 - E diminished - F#half dim - G diminished- Ami7 - A7 - Bb diminished

C diminished scale will work over any of those chords!
Here is the tab of all arpeggios and chords positions:
E |----------------------------|--------------2--3--5L-5----|----|-------|
B |----------------------------|-----2--4--5----------------|----|--4----|
G |--------------------2--3----|--5-------------------------|----|--3----|
D |-----------2--4--5----------|----------------------------|----|--5----|
A |--3--4--6-------------------|----------------------------|----|--3----|
E |----------------------------|----------------------------|----|-------|


--------------------3--6----|--8--6--3-------------------|-------|-------|
-----------------4----------|-----------4----------------|-------|--5----|
-----------3--5-------------|--------------5--3----------|-------|--6----|
--------5-------------------|--------------------5-------|-------|--5----|
--3--6----------------------|-----------------------6----|--3----|--4----|
----------------------------|----------------------------|-------|-------|


--------------------3--6----|--9--6--3-------------------|-------|--2----|
-----------------5----------|-----------5----------------|-------|--2----|
-----------3--6-------------|--------------6--3----------|-------|--3----|
--------5-------------------|--------------------5-------|-------|--1----|
--4--6----------------------|-----------------------6----|--4----|-------|
----------------------------|----------------------------|-------|-------|


--------------------6--9----|--11-9--6-------------------|-------|-------|
-----------------7----------|-----------7----------------|-------|--8----|
-----------6--8-------------|--------------8--6----------|-------|--6----|
--------8-------------------|--------------------8-------|-------|--8----|
--6--9----------------------|-----------------------9----|--6----|--6----|
----------------------------|----------------------------|-------|-------|


--------------------6--9----|--11-9--6-------------------|-------|--3----|
-----------------8----------|-----------8----------------|-------|--5----|
-----------6--8-------------|--------------8--6----------|-------|--3----|
--------8-------------------|--------------------8-------|-------|--5----|
--6--10---------------------|-----------------------10---|--6----|-------|
----------------------------|----------------------------|-------|-------|


--------------------6--9----|--6-------------------------|-------|
-----------------8----------|-----8----------------------|--10---|
-----------6--9-------------|--------9--6----------------|--9----|
--------8-------------------|--------------8-------------|--10---|
--7--10---------------------|-----------------10-7L-7----|--9----|
----------------------------|----------------------------|-------|


--------------------8--12---|--14-12-8-------------------|-------|--6----|
-----------------10---------|-----------10---------------|-------|--8----|
-----------9--11------------|--------------11-9----------|-------|--6----|
--------10------------------|--------------------10------|-------|--5----|
--10-12---------------------|-----------------------12---|--9----|-------|
----------------------------|----------------------------|-------|-------|


--------------------10-12---|--10------------------------|-------|
-----------------11---------|-----11---------------------|-------|
-----------9--12------------|--------12-9----------------|--5----|
--------11------------------|--------------11------------|--5----|
--10-13---------------------|-----------------13-10L10---|--7----|
----------------------------|----------------------------|--5----|


--------------------12-15---|--17-15-12------------------|-------|--5----|
-----------------13---------|-----------13---------------|-------|--5----|
-----------12-14------------|--------------14-12---------|-------|--6----|
--------14------------------|--------------------14------|-------|--5----|
--12-15---------------------|-----------------------15---|--12---|--7----|
----------------------------|----------------------------|-------|--5----|


--------------------12-15---|--17-15-12------------------|-------|--9----|
-----------------14---------|-----------14---------------|-------|--11---|
-----------12-14------------|--------------14-12---------|-------|--9----|
--------14------------------|--------------------14------|-------|--8----|
--12-15---------------------|-----------------------16---|--12---|-------|
----------------------------|----------------------------|-------|-------|


--------------------12-15---|--12------------------------||
-----------------14---------|-----14---------------------||
-----------12-15------------|--------15-12---------------||
--------14------------------|--------------14------------||
--13-16---------------------|-----------------16-13L13---||
----------------------------|----------------------------||


Guitar Pro
Attached File  Diminished.gpx ( 29.28K ) Number of downloads: 187


Let me know if you need help or have any questions!
See you tonight
11 PM Los Angeles Time
2 AM New York time


--------------------
Go to the top of the page
 
+Quote Post

Fast ReplyReply to this topicStart new topic
1 User(s) are reading this topic (1 Guests and 0 Anonymous Users)
0 Members:

 


RSS Lo-Fi Version Time is now: 29th March 2017 - 08:28 AM