Reply to this topicStart new topic
> Video Chat Will Start In 30 Minutes
Alex Feather
post Jul 26 2012, 08:26 AM
Post #1


Instructor
Group Icon

Group: GMC Instructor
Posts: 4.332
Joined: 21-November 11
From: Los Angeles
Member No.: 14.398



Hi guys! The video chat will start in 30 minutes!
I will show you a few mechanical exercises and will explain how to build up alternative picking!
So here are the exercises I will be showing
E |----------------------------------------------------|
B |----------------------------------------------------|
G |-----------------------------------------------4----|
D |-----------------------------4-----5--4--7--5-------|
A |-----------3-----5--3--7--5-----7-------------------|
E |--3--7--5-----7-------------------------------------|


-----------------------------------5-----5--8L-8----|----|----|
-----------------5-----7--5--8--7-----8-------------|----|----|
-----5--4--7--5-----7-------------------------------|----|----|
--7-------------------------------------------------|----|----|
----------------------------------------------------|----|----|
----------------------------------------------------|----|----|


----------------------------------------------------|
----------------------------------------------------|
--------------------------------------1--3--2--4----|
--------------------------1--3--2--4----------------|
--------------1--3--2--4----------------------------|
--1--3--2--4----------------------------------------|


--------------1--3--2--4--5--3--4--2----------------|
--1--3--2--4--------------------------5--3--4--2----|
----------------------------------------------------|
----------------------------------------------------|
----------------------------------------------------|
----------------------------------------------------|


----------------------------------------------------|----|
----------------------------------------------------|----|
--5--3--4--2----------------------------------------|----|
--------------5--3--4--2----------------------------|----|
--------------------------5--3--4--2----------------|----|
--------------------------------------5--3--4--2----|----|


----------------------------------------------------|----||
----------------------------------------------------|----||
-----------4--5--7-----------4--5--7-----------4----|----||
--4--5--7-----------4--5--7-----------4--5--7-------|----||
----------------------------------------------------|----||
----------------------------------------------------|----||


I will show you the most productive and easiest way to develop your technique!
See you in 30 minutes! smile.gif


--------------------
Go to the top of the page
 
+Quote Post
AK Rich
post Jul 26 2012, 08:28 AM
Post #2


Learning Guitar Hero
*

Group: Members
Posts: 2.642
Joined: 10-September 11
From: Big Lake, Alaska
Member No.: 13.839



very nice! smile.gif I have my Red Bull, see ya there!
Go to the top of the page
 
+Quote Post

Fast ReplyReply to this topicStart new topic
1 User(s) are reading this topic (1 Guests and 0 Anonymous Users)
0 Members:

 


RSS Lo-Fi Version Time is now: 21st July 2017 - 07:57 PM