Reply to this topicStart new topic
> Alternative Picking Mechanical Exercises Video Chat 7am London Time/ 11pm Los Angeles Time/ 2am New York Time
Alex Feather
post Aug 1 2012, 05:52 PM
Post #1


Instructor
Group Icon

Group: GMC Instructor
Posts: 4.332
Joined: 21-November 11
From: Los Angeles
Member No.: 14.398



Hi guys in today's video chat we will continue working on alternative picking I have a few challenging exercises
We will be changing strokes and fingering! It will be complicated but those exercises really work and will help you sync your hands together and develop alternative picking!

E |-----------------------------------------------3----|
B |-----------------------------3--5--7----------------|
G |--------------------------------------2--4--5-------|
D |-----------2--4--5----------------------------------|
A |--------------------2--3--5-------------------------|
E |--2--3--5-------------------------------------------|


--5--7--5--3----------------------------------------|
-----------------------7--5--3----------------------|
--------------5--4--2--------------------5--4--2----|
--------------------------------5--3--2-------------|
----------------------------------------------------|
----------------------------------------------------|


----------------------------------------------------|----|
----------------------------------------------------|----|
----------------------------------------------------|----|
-----------5--3--2----------------------------------|----|
--5--3--2-------------------------------------------|----|
--------------------5--3--2L-2L----------2----------|----|


--------------------------9-----9--12-9-----9-------|
-----------------10----10----10----------10----10---|
--------9-----9-----9-------------------------------|
-----11----11---------------------------------------|
--12------------------------------------------------|
----------------------------------------------------|


----------------------------------------------------|----|----|
-----10---------------------------------------------|----|----|
--9-----9-----9-------------------------------------|----|----|
-----------11----11---------------------------------|----|----|
--------------------12L12L12------------------------|----|----|
----------------------------------------------------|----|----|


--------------------------8-----8--12-8-----8-------|
-----------------10----10----10----------10----10---|
--------9-----9-----9-------------------------------|
-----10----10---------------------------------------|
--12------------------------------------------------|
----------------------------------------------------|


----------------------------------------------------|----|----|
-----10---------------------------------------------|----|----|
--9-----9-----9-------------------------------------|----|----|
-----------10----10---------------------------------|----|----|
--------------------12L12L12------------------------|----|----|
----------------------------------------------------|----|----|


-----------------------------------------------7----|
--------------------------------------7--8--10------|
-----------------------------4--5--7----------------|
--------------------4--5--7-------------------------|
-----------2--3--5----------------------------------|
--2--3--5-------------------------------------------|


--8--10----------5--7--8-----------7--10------------|
--------5--7--8-----------7--8--10-------8--10-12---|
----------------------------------------------------|
----------------------------------------------------|
----------------------------------------------------|
----------------------------------------------------|


--8--10-12----------10-12-14------------------------||
-----------10-12-13---------------------------------||
----------------------------------------------------||
----------------------------------------------------||
----------------------------------------------------||
----------------------------------------------------||

Make to check notes from the previous chat
https://www.guitarmasterclass.net/guitar_fo...40&start=40

See you at 7am London time/ 11pm Los Angeles time/ 2am New York time


--------------------
Go to the top of the page
 
+Quote Post

Fast ReplyReply to this topicStart new topic
1 User(s) are reading this topic (1 Guests and 0 Anonymous Users)
0 Members:

 


RSS Lo-Fi Version Time is now: 28th July 2017 - 08:03 AM