Reply to this topicStart new topic
> Alternative Picking Mechanical Exercises Part 3 Video Chat 7am London Time/ 11pm Los Angeles Time/ 2am New York Time
Alex Feather
post Aug 8 2012, 09:54 PM
Post #1


Instructor
Group Icon

Group: GMC Instructor
Posts: 4.332
Joined: 21-November 11
From: Los Angeles
Member No.: 14.398



In tonights video chat I will show you more mechanical exercises that will help you develop alternative licking!
E ||---------------------------|---------------------------|||
B ||---------------------------|---------------------------|||
G ||o--------------------------|--------------------------o|||
D ||o7--7--7--7--7--7--7--7----|--7--7--7--7--7--7--7--7--o|||
A ||---------------------------|---------------------------|||
E ||---------------------------|---------------------------|||


---------------------------|---------------------------|||
---------------------------|--5--5--5--5---------------|||
o------------5--5--5--5----|--------------5--5--5--5--o|||
o7--7--7--7----------------|--------------------------o|||
---------------------------|---------------------------|||
---------------------------|---------------------------|||


---------------------------|---------------------------|||
-8--5--------5-------------|--8--5--------5------------|||
o------7--5-----7--5-------|--------7--5-----7--5-----o|||
o---------------------7----|-----------------------7--o|||
---------------------------|---------------------------|||
---------------------------|---------------------------|||


---------------------------|---------------------------|||
---------------------------|---------------------------|||
o7--5----------------------|--------------------------o|||
o------7--6--5-----5-------|--------------5-----7--5--o|||
----------------7-----7----|--6--5--6--7-----7---------|||
---------------------------|---------------------------|||


---------------------------|---------------------------|||
---------------------------|---------------------------|||
o7--5--------9--5----------|--7--5--------9--5--------o|||
o------7--5--------7--5----|--------7--5--------7--5--o|||
---------------------------|---------------------------|||
---------------------------|---------------------------|||


---------------------------|---------------------------|||
-------------------5--8----|--5------------------------|||
o---------5--6--7----------|-----7--6--5-----5--------o|||
o5--6--7-------------------|--------------7-----7--6--o|||
---------------------------|---------------------------|||
---------------------------|---------------------------|||


-8--5----------------------|--8--5---------------------|||
-------8--5--8--5----------|--------8--5--8--5---------|||
o------------------7--5----|--------------------7--5--o|||
o--------------------------|--------------------------o|||
---------------------------|---------------------------|||
---------------------------|---------------------------|||


---------------------------|---------------------------|||
-------------------5--8----|--5------------------------|||
o---------5--6--7----------|-----7--6--5-----5--------o|||
o5--6--7-------------------|--------------7-----7--6--o|||
---------------------------|---------------------------|||
---------------------------|---------------------------|||


---------------------------|---------------------------|||
-------------------8--10---|--8------------------------|||
o------------7--9----------|-----9--7-----------------o|||
o------7--9----------------|-----------9--7-----------o|||
-7--10---------------------|-----------------10-7--10--|||
---------------------------|---------------------------|||


---------------------------------------------------|
---------------------------------------------------|
o------------------------------------------5-------|
o------------------------5-----5--7--5--7-----7----|
-------5-----5--7--5--7-----7----------------------|
-5--8-----8----------------------------------------|


--------------------------------5-----5--8--8--8----|
--------------5-----5--8--5--8-----8----------------|
--5--7--5--7-----7----------------------------------|
----------------------------------------------------|
----------------------------------------------------|
----------------------------------------------------|


--8--5-----5----------------------------------------|
--------8-----8--5--8--5-----5----------------------|
--------------------------7-----7--5--7--5-----5----|
--------------------------------------------7-------|
----------------------------------------------------|
----------------------------------------------------|


---------------------------------------------------||----|----|----|----||
---------------------------------------------------||----|----|----|----||
--------------------------------------------------o||----|----|----|----||
--7--5--7--5-----5--------------------------------o||----|----|----|----||
--------------7-----7--5--7--5-----5---------------||----|----|----|----||
--------------------------------8-----8--5--8--5---||----|----|----|----||


Attached File  Licks_Workout_120_BPM.gp5 ( 4.04K ) Number of downloads: 34


See you at 7am London Time/ 11pm Los Angeles Time/ 2am New York Time


--------------------
Go to the top of the page
 
+Quote Post
Alex Feather
post Aug 9 2012, 06:33 AM
Post #2


Instructor
Group Icon

Group: GMC Instructor
Posts: 4.332
Joined: 21-November 11
From: Los Angeles
Member No.: 14.398



Video chat will start in 30 minutes!
Enter here:
https://www.guitarmasterclass.net/chat/


--------------------
Go to the top of the page
 
+Quote Post
Gabriel Leopardi
post Aug 9 2012, 03:29 PM
Post #3


Instructor
Group Icon

Group: GMC Instructor
Posts: 28.054
Joined: 3-March 07
From: Argentina
Member No.: 1.289



Great topic and exercises Alex! smile.gif


--------------------
My lessons

Do you need a Guitar Plan?
Join Gab's Army

Check my band:Cirse
Check my soundcloud:Soundcloud

Please subscribe to my:Youtube Channel
Go to the top of the page
 
+Quote Post
Yash
post Aug 9 2012, 05:12 PM
Post #4


GMC:er
*

Group: Members
Posts: 1.100
Joined: 4-April 12
From: Tver, Russia
Member No.: 15.579



These were great exercises smile.gif I really learned and I am trying to incorporate them into my daily schedule smile.gif It was absolutely awesome biggrin.gif
And we had some fun too smile.gif


--------------------
Play with emotion. Playing with all technique and no emotion makes you boring. And most importantly, Make faces while bending.


Go to the top of the page
 
+Quote Post
Alex Feather
post Aug 9 2012, 06:19 PM
Post #5


Instructor
Group Icon

Group: GMC Instructor
Posts: 4.332
Joined: 21-November 11
From: Los Angeles
Member No.: 14.398



QUOTE (Gabriel Leopardi @ Aug 9 2012, 02:29 PM) *
Great topic and exercises Alex! smile.gif

Thank you very much! I am glad you like them! smile.gif

QUOTE (Yash @ Aug 9 2012, 04:12 PM) *
These were great exercises smile.gif I really learned and I am trying to incorporate them into my daily schedule smile.gif It was absolutely awesome biggrin.gif
And we had some fun too smile.gif

Thanks Yash! I am glad you like them!


--------------------
Go to the top of the page
 
+Quote Post

Fast ReplyReply to this topicStart new topic
1 User(s) are reading this topic (1 Guests and 0 Anonymous Users)
0 Members:

 


RSS Lo-Fi Version Time is now: 16th January 2017 - 06:08 PM