2 Pages V  < 1 2  
Reply to this topicStart new topic
> Casinostrat Theory Mentoring
casinostrat
post Sep 5 2012, 01:11 AM
Post #21


GMC:er
*

Group: Members
Posts: 452
Joined: 20-January 10
From: The Appalachian Mountains
Member No.: 9.238



Attached File  Chord_Assignment.mp3 ( 1.57MB ) Number of downloads: 41




Hey man here is my solo. My power went off yesterday, just came back on, so I decided to just go ahead and upload it the old fashioned way. I'm not real happy about the tapping part at the end, but other than that I had a lot of fun with it!


--------------------
My Sound Cloud Profile: http://soundcloud.com/casinostrat

Gear I Use:

Guitars: Gibson: Les Paul Custom, ES-339, and Faded Flying V
Fender: American Stratocaster Deluxe (I think?)
Epiphone: Les Paul 56' Gold Top and Les Paul Standard, Casino
Yamaha: FG720S Accoustic

Amps: Fender Champ, Peavey Bandit 112, and an ancient Epiphone Amp:)

Effects: Digitech RP 500 Effects Pedal Picks: Dunlop Jazz IIIs

Practice, Practice, Practice, and remember Every Artist Does Get Better Eventually!

Go to the top of the page
 
+Quote Post
Alex Feather
post Sep 6 2012, 07:00 AM
Post #22


Instructor
Group Icon

Group: GMC Instructor
Posts: 4.332
Joined: 21-November 11
From: Los Angeles
Member No.: 14.398



QUOTE (casinostrat @ Sep 5 2012, 12:11 AM) *
Attached File  Chord_Assignment.mp3 ( 1.57MB ) Number of downloads: 41




Hey man here is my solo. My power went off yesterday, just came back on, so I decided to just go ahead and upload it the old fashioned way. I'm not real happy about the tapping part at the end, but other than that I had a lot of fun with it!

Sounds very nice! Very melodic! AS few notes were off and you had some timing issues, but it sounded very good anyway! smile.gif
I will add my take and a new assignment in a few hours!
Good job!


--------------------
Go to the top of the page
 
+Quote Post
Alex Feather
post Sep 8 2012, 12:26 AM
Post #23


Instructor
Group Icon

Group: GMC Instructor
Posts: 4.332
Joined: 21-November 11
From: Los Angeles
Member No.: 14.398



QUOTE (casinostrat @ Sep 5 2012, 12:11 AM) *
Attached File  Chord_Assignment.mp3 ( 1.57MB ) Number of downloads: 41




Hey man here is my solo. My power went off yesterday, just came back on, so I decided to just go ahead and upload it the old fashioned way. I'm not real happy about the tapping part at the end, but other than that I had a lot of fun with it!

Awesome! So for a new assignment I would like you to try out a G minor blues pentatonic
I did my take to give you ideas please continue my solo!
http://soundcloud.com/alex-feather-akimov/gminor-solo

Those are the shapes I would like you to use:




Let me know if you have any questions or need help with anything!


--------------------
Go to the top of the page
 
+Quote Post
casinostrat
post Sep 9 2012, 02:12 AM
Post #24


GMC:er
*

Group: Members
Posts: 452
Joined: 20-January 10
From: The Appalachian Mountains
Member No.: 9.238



QUOTE (Alex Feather @ Sep 7 2012, 11:26 PM) *
Awesome! So for a new assignment I would like you to try out a G minor blues pentatonic
I did my take to give you ideas please continue my solo!
http://soundcloud.com/alex-feather-akimov/gminor-solo


Let me know if you have any questions or need help with anything!


Okay man, I will work on it this week, and see what I come with!


--------------------
My Sound Cloud Profile: http://soundcloud.com/casinostrat

Gear I Use:

Guitars: Gibson: Les Paul Custom, ES-339, and Faded Flying V
Fender: American Stratocaster Deluxe (I think?)
Epiphone: Les Paul 56' Gold Top and Les Paul Standard, Casino
Yamaha: FG720S Accoustic

Amps: Fender Champ, Peavey Bandit 112, and an ancient Epiphone Amp:)

Effects: Digitech RP 500 Effects Pedal Picks: Dunlop Jazz IIIs

Practice, Practice, Practice, and remember Every Artist Does Get Better Eventually!

Go to the top of the page
 
+Quote Post
Alex Feather
post Sep 10 2012, 04:51 PM
Post #25


Instructor
Group Icon

Group: GMC Instructor
Posts: 4.332
Joined: 21-November 11
From: Los Angeles
Member No.: 14.398



QUOTE (casinostrat @ Sep 9 2012, 01:12 AM) *
Okay man, I will work on it this week, and see what I come with!

Sounds good! I am looking forward to hear your take!


--------------------
Go to the top of the page
 
+Quote Post
casinostrat
post Sep 16 2012, 05:36 PM
Post #26


GMC:er
*

Group: Members
Posts: 452
Joined: 20-January 10
From: The Appalachian Mountains
Member No.: 9.238



Hey man just to let you know I'm still working on this assignment, had a busy week this past week, l haven't had a lot of time to work on it. This upcoming week however, I'll have more time to work on it.


--------------------
My Sound Cloud Profile: http://soundcloud.com/casinostrat

Gear I Use:

Guitars: Gibson: Les Paul Custom, ES-339, and Faded Flying V
Fender: American Stratocaster Deluxe (I think?)
Epiphone: Les Paul 56' Gold Top and Les Paul Standard, Casino
Yamaha: FG720S Accoustic

Amps: Fender Champ, Peavey Bandit 112, and an ancient Epiphone Amp:)

Effects: Digitech RP 500 Effects Pedal Picks: Dunlop Jazz IIIs

Practice, Practice, Practice, and remember Every Artist Does Get Better Eventually!

Go to the top of the page
 
+Quote Post
Alex Feather
post Sep 17 2012, 04:49 PM
Post #27


Instructor
Group Icon

Group: GMC Instructor
Posts: 4.332
Joined: 21-November 11
From: Los Angeles
Member No.: 14.398



QUOTE (casinostrat @ Sep 16 2012, 04:36 PM) *
Hey man just to let you know I'm still working on this assignment, had a busy week this past week, l haven't had a lot of time to work on it. This upcoming week however, I'll have more time to work on it.

Sounds good! Take your time and let me know if you have any questions or need help with anything! smile.gif


--------------------
Go to the top of the page
 
+Quote Post
casinostrat
post Sep 25 2012, 01:43 AM
Post #28


GMC:er
*

Group: Members
Posts: 452
Joined: 20-January 10
From: The Appalachian Mountains
Member No.: 9.238



Hey Alex I have my take ready to go I just have to record it. I got a new computer this week so as soon as I get cubase up and running I'll record it. Should be this week, thanks for being patient.


--------------------
My Sound Cloud Profile: http://soundcloud.com/casinostrat

Gear I Use:

Guitars: Gibson: Les Paul Custom, ES-339, and Faded Flying V
Fender: American Stratocaster Deluxe (I think?)
Epiphone: Les Paul 56' Gold Top and Les Paul Standard, Casino
Yamaha: FG720S Accoustic

Amps: Fender Champ, Peavey Bandit 112, and an ancient Epiphone Amp:)

Effects: Digitech RP 500 Effects Pedal Picks: Dunlop Jazz IIIs

Practice, Practice, Practice, and remember Every Artist Does Get Better Eventually!

Go to the top of the page
 
+Quote Post
Alex Feather
post Sep 27 2012, 03:37 PM
Post #29


Instructor
Group Icon

Group: GMC Instructor
Posts: 4.332
Joined: 21-November 11
From: Los Angeles
Member No.: 14.398



QUOTE (casinostrat @ Sep 25 2012, 12:43 AM) *
Hey Alex I have my take ready to go I just have to record it. I got a new computer this week so as soon as I get cubase up and running I'll record it. Should be this week, thanks for being patient.

No problem! smile.gif I am glad you are getting a new computer and Cubase is a very cool software!
After you will get everything set up we can work on recording and creating backing tracks! smile.gif
Upload your track when you are ready! smile.gif
Looking forward to hear your take!


--------------------
Go to the top of the page
 
+Quote Post
casinostrat
post Oct 16 2012, 11:52 PM
Post #30


GMC:er
*

Group: Members
Posts: 452
Joined: 20-January 10
From: The Appalachian Mountains
Member No.: 9.238




Attached File  Finally_Done.mp3 ( 2.94MB ) Number of downloads: 46


Well here it is, finally done! Took me long enough, I finally ended up setting my old computer back up and using all my old equipment, I hope its alright, since everything surrounding it has been crazy. I tried to kind of have similar sound as you and make my solo mesh into yours, and I also stayed with the shapes you wanted me to use, except for one point where I took them up the neck. Instead of Gminor starting at the third fret, I moved up to the 15th, but its the same scale shape. Really wished I got this in sooner, but college reports got in the way, hopefully I can be a little more prompt from now on.


--------------------
My Sound Cloud Profile: http://soundcloud.com/casinostrat

Gear I Use:

Guitars: Gibson: Les Paul Custom, ES-339, and Faded Flying V
Fender: American Stratocaster Deluxe (I think?)
Epiphone: Les Paul 56' Gold Top and Les Paul Standard, Casino
Yamaha: FG720S Accoustic

Amps: Fender Champ, Peavey Bandit 112, and an ancient Epiphone Amp:)

Effects: Digitech RP 500 Effects Pedal Picks: Dunlop Jazz IIIs

Practice, Practice, Practice, and remember Every Artist Does Get Better Eventually!

Go to the top of the page
 
+Quote Post
Alex Feather
post Oct 19 2012, 08:05 AM
Post #31


Instructor
Group Icon

Group: GMC Instructor
Posts: 4.332
Joined: 21-November 11
From: Los Angeles
Member No.: 14.398



QUOTE (casinostrat @ Oct 16 2012, 10:52 PM) *
Attached File  Finally_Done.mp3 ( 2.94MB ) Number of downloads: 46


Well here it is, finally done! Took me long enough, I finally ended up setting my old computer back up and using all my old equipment, I hope its alright, since everything surrounding it has been crazy. I tried to kind of have similar sound as you and make my solo mesh into yours, and I also stayed with the shapes you wanted me to use, except for one point where I took them up the neck. Instead of Gminor starting at the third fret, I moved up to the 15th, but its the same scale shape. Really wished I got this in sooner, but college reports got in the way, hopefully I can be a little more prompt from now on.

It sounded very good I like your touch and you have a very nice vibrato! and it is totally fine to use old equipment as long as it does the job! smile.gif
I liked your solo and you had some great moments it sounded to me that you gave everything right from the beginning and if you would build it up slower playing less at first your solo will create more impact!
Have you heard about question and answer technique?
If not I can explain it in details!
Let me know!
Also it sounded like your guitar was a little out of tune but it didn't change your performance too much!
Good job!


--------------------
Go to the top of the page
 
+Quote Post
casinostrat
post Oct 22 2012, 02:10 AM
Post #32


GMC:er
*

Group: Members
Posts: 452
Joined: 20-January 10
From: The Appalachian Mountains
Member No.: 9.238



Thanks for the kind words regarding the solo man! The guitar probably was slightly out of tune, I tuned it before I started practicing, but I had practiced foe quite a while before I recorded that, and all the bends probably knocked it a little out. smile.gif

I think I have heard about the question and answer technique, only I think I heard it called "Call and Response" technique. You are talking about playing one phrase and then answering it with a similar phrase? I am fairly familiar with doing this with two guitars, but haven't really tried working on doing it with one guitar. That would be awesome!

Also I have a sort of theory related question. I know there are patterns you can learn in order to play modes and pentatonics and I know those, but is there a box pattern or three note per string type of pattern for harmonic minor? I would like to be able to play harmonic minor up and down the neck, and thought having a pattern to go by would make it easier to learn. smile.gif

Maybe we could do a question and answer type of lesson based in harmonic minor but whatever you want to do, thats ok by me!


--------------------
My Sound Cloud Profile: http://soundcloud.com/casinostrat

Gear I Use:

Guitars: Gibson: Les Paul Custom, ES-339, and Faded Flying V
Fender: American Stratocaster Deluxe (I think?)
Epiphone: Les Paul 56' Gold Top and Les Paul Standard, Casino
Yamaha: FG720S Accoustic

Amps: Fender Champ, Peavey Bandit 112, and an ancient Epiphone Amp:)

Effects: Digitech RP 500 Effects Pedal Picks: Dunlop Jazz IIIs

Practice, Practice, Practice, and remember Every Artist Does Get Better Eventually!

Go to the top of the page
 
+Quote Post
Alex Feather
post Oct 22 2012, 04:59 PM
Post #33


Instructor
Group Icon

Group: GMC Instructor
Posts: 4.332
Joined: 21-November 11
From: Los Angeles
Member No.: 14.398



QUOTE (casinostrat @ Oct 22 2012, 01:10 AM) *
Thanks for the kind words regarding the solo man! The guitar probably was slightly out of tune, I tuned it before I started practicing, but I had practiced foe quite a while before I recorded that, and all the bends probably knocked it a little out. smile.gif

I think I have heard about the question and answer technique, only I think I heard it called "Call and Response" technique. You are talking about playing one phrase and then answering it with a similar phrase? I am fairly familiar with doing this with two guitars, but haven't really tried working on doing it with one guitar. That would be awesome!

Also I have a sort of theory related question. I know there are patterns you can learn in order to play modes and pentatonics and I know those, but is there a box pattern or three note per string type of pattern for harmonic minor? I would like to be able to play harmonic minor up and down the neck, and thought having a pattern to go by would make it easier to learn. smile.gif

Maybe we could do a question and answer type of lesson based in harmonic minor but whatever you want to do, thats ok by me!

Yeah you have heard about the same technique just different name! smile.gif
Try it out it will make a big difference in your playing!
Here is the scale workout exercise you might like it has all the modes in all shapes so all you will have to do after mastering it is to just move the pattern and you can get it in any key!

Title: Scales workout
Tempo = 90
Steel Guitar

Legend
L - tied note
x - dead note
h - hammer on/pull off
b - bend
s - slide
~ - vibrato
g - ghost note
> - accentuated note
t - trill
M - palm mute
. - staccato
P - popping (bass)
S - slapping (bass)
+ - tapping
W - wide vibrato
< - fade in
w - whammy bar
= - tremolo picking
v - brush up
^ - brush down
V - pick stroke up
n - pick stroke down


E ||----------------------------------------------3----|
B ||-------------------------------------3--5--7-------|
G ||o---------------------------2--4--5----------------|
D ||o------------------2--4--5-------------------------|
A ||----------2--3--5----------------------------------|
E ||-2--3--5-------------------------------------------|


--5--7--5--3---------------------------------------|||---------------|
--------------7--5--3------------------------------|||---------------|
-----------------------5--4--2--------------------o|||o--------------|
--------------------------------5--4--2-----------o|||o--------------|
-----------------------------------------5--3--2---|||---------------|
---------------------------------------------------|||---------------|


---------------|||----------------------------------------------5----|
---------------|||-------------------------------------5--7--8-------|
--------------o|||o---------------------------4--5--7----------------|
--------------o|||o------------------4--5--7-------------------------|
---------------|||----------3--5--7----------------------------------|
---------------|||-3--5--7-------------------------------------------|


--7--8--7--5---------------------------------------||----------------|
--------------8--7--5------------------------------||----------------|
-----------------------7--5--4--------------------o||----------------|
--------------------------------7--5--4-----------o||----------------|
-----------------------------------------7--5--3---||----------------|
---------------------------------------------------||----------------|


----------------||----------------------------------------------7----|
----------------||-------------------------------------7--8--10------|
----------------||o---------------------------5--7--9----------------|
----------------||o------------------5--7--9-------------------------|
----------------||----------5--7--9----------------------------------|
----------------||-5--7--8-------------------------------------------|


--8--10-8--7---------------------------------------||----------------|
--------------10-8--7------------------------------||----------------|
-----------------------9--7--5--------------------o||----------------|
--------------------------------9--7--5-----------o||----------------|
-----------------------------------------9--7--5---||----------------|
---------------------------------------------------||----------------|


----------------||----------------------------------------------8----|
----------------||-------------------------------------8--10-12------|
----------------||o---------------------------7--9--11---------------|
----------------||o------------------7--9--10------------------------|
----------------||----------7--9--10---------------------------------|
----------------||-7--8--10------------------------------------------|


--10-12-10-8---------------------------------------||----------------|
--------------12-10-8------------------------------||----------------|
-----------------------11-9--7--------------------o||----------------|
--------------------------------10-9--7-----------o||----------------|
-----------------------------------------10-9--7---||----------------|
---------------------------------------------------||----------------|


----------------||----------------------------------------------10---|
----------------||-------------------------------------10-12-13------|
----------------||o---------------------------9--11-12---------------|
----------------||o------------------9--10-12------------------------|
----------------||----------9--10-12---------------------------------|
----------------||-8--10-12------------------------------------------|


--12-14-12-10--------------------------------------||----------------|
--------------13-12-10-----------------------------||----------------|
-----------------------12-11-9--------------------o||----------------|
--------------------------------12-10-9-----------o||----------------|
-----------------------------------------12-10-9---||----------------|
---------------------------------------------------||----------------|


----------------||----------------------------------------------12---|
----------------||-------------------------------------12-13-15------|
----------------||o---------------------------11-12-14---------------|
----------------||o------------------10-12-14------------------------|
----------------||----------10-12-14---------------------------------|
----------------||-10-12-14------------------------------------------|


--14-15-14-12--------------------------------------||----------------|
--------------15-14-12-----------------------------||----------------|
-----------------------14-12-11-------------------o||----------------|
--------------------------------14-12-10----------o||----------------|
-----------------------------------------14-12-10--||----------------|
---------------------------------------------------||----------------|


----------------||----------------------------------------------14---|
----------------||-------------------------------------13-15-17------|
----------------||o---------------------------12-14-16---------------|
----------------||o------------------12-14-16------------------------|
----------------||----------12-14-15---------------------------------|
----------------||-12-14-15------------------------------------------|


--15-17-15-14--------------------------------------||----------------|
--------------17-15-13-----------------------------||----------------|
-----------------------16-14-12-------------------o||----------------|
--------------------------------16-14-12----------o||----------------|
-----------------------------------------15-14-12--||----------------|
---------------------------------------------------||----------------|


----------------|-----------------------------------------------14---|
----------------|--------------------------------------13-15-17------|
----------------|-----------------------------12-14-16---------------|
----------------|--------------------12-14-16------------------------|
----------------|-----------12-14-15---------------------------------|
----------------|--12-14-15------------------------------------------|


--15-17-15-14---------------------------------------|
--------------17-15-13------------------------------|
-----------------------16-14-12---------------------|
--------------------------------16-14-12------------|
-----------------------------------------15-14-12---|
----------------------------------------------------|


-----------------------------------------------12---|
--------------------------------------12-13-15------|
-----------------------------11-12-14---------------|
--------------------10-12-14------------------------|
-----------10-12-14---------------------------------|
--10-12-14------------------------------------------|


--14-15-14-12---------------------------------------|
--------------15-14-12------------------------------|
-----------------------14-12-11---------------------|
--------------------------------14-12-10------------|
-----------------------------------------14-12-10---|
----------------------------------------------------|


-----------------------------------------------10---|
--------------------------------------10-12-13------|
-----------------------------9--11-12---------------|
--------------------9--10-12------------------------|
-----------9--10-12---------------------------------|
--8--10-12------------------------------------------|


--12-14-12-10---------------------------------------|
--------------13-12-10------------------------------|
-----------------------12-11-9----------------------|
--------------------------------12-10-9-------------|
-----------------------------------------12-10-9----|
----------------------------------------------------|


-----------------------------------------------8----|
--------------------------------------8--10-12------|
-----------------------------7--9--11---------------|
--------------------7--9--10------------------------|
-----------7--9--10---------------------------------|
--7--8--10------------------------------------------|


--10-12-10-8----------------------------------------|
--------------12-10-8-------------------------------|
-----------------------11-9--7----------------------|
--------------------------------10-9--7-------------|
-----------------------------------------10-9--7----|
----------------------------------------------------|


-----------------------------------------------7----|
--------------------------------------7--8--10------|
-----------------------------5--7--9----------------|
--------------------5--7--9-------------------------|
-----------5--7--9----------------------------------|
--5--7--8-------------------------------------------|


--8--10-8--7----------------------------------------|
--------------10-8--7-------------------------------|
-----------------------9--7--5----------------------|
--------------------------------9--7--5-------------|
-----------------------------------------9--7--5----|
----------------------------------------------------|


-----------------------------------------------5----|
--------------------------------------5--7--8-------|
-----------------------------4--5--7----------------|
--------------------4--5--7-------------------------|
-----------3--5--7----------------------------------|
--3--5--7-------------------------------------------|


--7--8--7--5----------------------------------------||
--------------8--7--5-------------------------------||
-----------------------7--5--4----------------------||
--------------------------------7--5--4-------------||
-----------------------------------------7--5--3----||
----------------------------------------------------||


----------------------------------------------3----|
-------------------------------------3--5--7-------|
o---------------------------2--4--5----------------|
o------------------2--4--5-------------------------|
----------2--3--5----------------------------------|
-2--3--5-------------------------------------------|


--5--7--5--3---------------------------------------|||
--------------7--5--3------------------------------|||
-----------------------5--4--2--------------------o|||
--------------------------------5--4--2-----------o|||
-----------------------------------------5--3--2---|||
---------------------------------------------------|||


----------------------------------------------7----|
-------------------------------------7--8--10------|
o---------------------------5--7--9----------------|
o------------------5--7--9-------------------------|
----------5--7--9----------------------------------|
-5--7--8-------------------------------------------|


--8--10-8--7---------------------------------------|||
--------------10-8--7------------------------------|||
-----------------------9--7--5--------------------o|||
--------------------------------9--7--5-----------o|||
-----------------------------------------9--7--5---|||
---------------------------------------------------|||


----------------------------------------------8----|
-------------------------------------8--10-12------|
o---------------------------7--9--11---------------|
o------------------7--9--10------------------------|
----------7--9--10---------------------------------|
-7--8--10------------------------------------------|


--10-12-10-8---------------------------------------|||
--------------12-10-8------------------------------|||
-----------------------11-9--7--------------------o|||
--------------------------------10-9--7-----------o|||
-----------------------------------------10-9--7---|||
---------------------------------------------------|||


----------------------------------------------5----|
-------------------------------------5--7--8-------|
o---------------------------4--5--7----------------|
o------------------4--5--7-------------------------|
----------3--5--7----------------------------------|
-3--5--7-------------------------------------------|


--7--8--7--5---------------------------------------|||
--------------8--7--5------------------------------|||
-----------------------7--5--4--------------------o|||
--------------------------------7--5--4-----------o|||
-----------------------------------------7--5--3---|||
---------------------------------------------------|||


----------------------------------------------12---|
-------------------------------------12-13-15------|
o---------------------------11-12-14---------------|
o------------------10-12-14------------------------|
----------10-12-14---------------------------------|
-10-12-14------------------------------------------|


--14-15-14-12--------------------------------------|||
--------------15-14-12-----------------------------|||
-----------------------14-12-11-------------------o|||
--------------------------------14-12-10----------o|||
-----------------------------------------14-12-10--|||
---------------------------------------------------|||


----------------------------------------------14---|
-------------------------------------13-15-17------|
o---------------------------12-14-16---------------|
o------------------12-14-16------------------------|
----------12-14-15---------------------------------|
-12-14-15------------------------------------------|


--15-17-15-14--------------------------------------||
--------------17-15-13-----------------------------||
-----------------------16-14-12-------------------o||
--------------------------------16-14-12----------o||
-----------------------------------------15-14-12--||
---------------------------------------------------||


-----------------------------------------------3----|
--------------------------------------3--5--7-------|
-----------------------------2--4--5----------------|
--------------------2--4--5-------------------------|
-----------2--3--5----------------------------------|
--2--3--5-------------------------------------------|


--5--7--5--3----------------------------------------|-------||
--------------7--5--3-------------------------------|-------||
-----------------------5--4--2----------------------|-------||
--------------------------------5--4--2-------------|-------||
-----------------------------------------5--3--2----|-------||
----------------------------------------------------|--3----||

Attached File  Scales_workout.gp5 ( 8.99K ) Number of downloads: 30


Let me know what do you think!


--------------------
Go to the top of the page
 
+Quote Post
casinostrat
post Nov 18 2012, 02:11 AM
Post #34


GMC:er
*

Group: Members
Posts: 452
Joined: 20-January 10
From: The Appalachian Mountains
Member No.: 9.238



QUOTE (Alex Feather @ Oct 22 2012, 03:59 PM) *
Yeah you have heard about the same technique just different name! smile.gif
Try it out it will make a big difference in your playing!
Here is the scale workout exercise you might like it has all the modes in all shapes so all you will have to do after mastering it is to just move the pattern and you can get it in any key!

Title: Scales workout
Tempo = 90
Steel Guitar

Legend
L - tied note
x - dead note
h - hammer on/pull off
b - bend
s - slide
~ - vibrato
g - ghost note
> - accentuated note
t - trill
M - palm mute
. - staccato
P - popping (bass)
S - slapping (bass)
+ - tapping
W - wide vibrato
< - fade in
w - whammy bar
= - tremolo picking
v - brush up
^ - brush down
V - pick stroke up
n - pick stroke down


E ||----------------------------------------------3----|
B ||-------------------------------------3--5--7-------|
G ||o---------------------------2--4--5----------------|
D ||o------------------2--4--5-------------------------|
A ||----------2--3--5----------------------------------|
E ||-2--3--5-------------------------------------------|


--5--7--5--3---------------------------------------|||---------------|
--------------7--5--3------------------------------|||---------------|
-----------------------5--4--2--------------------o|||o--------------|
--------------------------------5--4--2-----------o|||o--------------|
-----------------------------------------5--3--2---|||---------------|
---------------------------------------------------|||---------------|


---------------|||----------------------------------------------5----|
---------------|||-------------------------------------5--7--8-------|
--------------o|||o---------------------------4--5--7----------------|
--------------o|||o------------------4--5--7-------------------------|
---------------|||----------3--5--7----------------------------------|
---------------|||-3--5--7-------------------------------------------|


--7--8--7--5---------------------------------------||----------------|
--------------8--7--5------------------------------||----------------|
-----------------------7--5--4--------------------o||----------------|
--------------------------------7--5--4-----------o||----------------|
-----------------------------------------7--5--3---||----------------|
---------------------------------------------------||----------------|


----------------||----------------------------------------------7----|
----------------||-------------------------------------7--8--10------|
----------------||o---------------------------5--7--9----------------|
----------------||o------------------5--7--9-------------------------|
----------------||----------5--7--9----------------------------------|
----------------||-5--7--8-------------------------------------------|


--8--10-8--7---------------------------------------||----------------|
--------------10-8--7------------------------------||----------------|
-----------------------9--7--5--------------------o||----------------|
--------------------------------9--7--5-----------o||----------------|
-----------------------------------------9--7--5---||----------------|
---------------------------------------------------||----------------|


----------------||----------------------------------------------8----|
----------------||-------------------------------------8--10-12------|
----------------||o---------------------------7--9--11---------------|
----------------||o------------------7--9--10------------------------|
----------------||----------7--9--10---------------------------------|
----------------||-7--8--10------------------------------------------|


--10-12-10-8---------------------------------------||----------------|
--------------12-10-8------------------------------||----------------|
-----------------------11-9--7--------------------o||----------------|
--------------------------------10-9--7-----------o||----------------|
-----------------------------------------10-9--7---||----------------|
---------------------------------------------------||----------------|


----------------||----------------------------------------------10---|
----------------||-------------------------------------10-12-13------|
----------------||o---------------------------9--11-12---------------|
----------------||o------------------9--10-12------------------------|
----------------||----------9--10-12---------------------------------|
----------------||-8--10-12------------------------------------------|


--12-14-12-10--------------------------------------||----------------|
--------------13-12-10-----------------------------||----------------|
-----------------------12-11-9--------------------o||----------------|
--------------------------------12-10-9-----------o||----------------|
-----------------------------------------12-10-9---||----------------|
---------------------------------------------------||----------------|


----------------||----------------------------------------------12---|
----------------||-------------------------------------12-13-15------|
----------------||o---------------------------11-12-14---------------|
----------------||o------------------10-12-14------------------------|
----------------||----------10-12-14---------------------------------|
----------------||-10-12-14------------------------------------------|


--14-15-14-12--------------------------------------||----------------|
--------------15-14-12-----------------------------||----------------|
-----------------------14-12-11-------------------o||----------------|
--------------------------------14-12-10----------o||----------------|
-----------------------------------------14-12-10--||----------------|
---------------------------------------------------||----------------|


----------------||----------------------------------------------14---|
----------------||-------------------------------------13-15-17------|
----------------||o---------------------------12-14-16---------------|
----------------||o------------------12-14-16------------------------|
----------------||----------12-14-15---------------------------------|
----------------||-12-14-15------------------------------------------|


--15-17-15-14--------------------------------------||----------------|
--------------17-15-13-----------------------------||----------------|
-----------------------16-14-12-------------------o||----------------|
--------------------------------16-14-12----------o||----------------|
-----------------------------------------15-14-12--||----------------|
---------------------------------------------------||----------------|


----------------|-----------------------------------------------14---|
----------------|--------------------------------------13-15-17------|
----------------|-----------------------------12-14-16---------------|
----------------|--------------------12-14-16------------------------|
----------------|-----------12-14-15---------------------------------|
----------------|--12-14-15------------------------------------------|


--15-17-15-14---------------------------------------|
--------------17-15-13------------------------------|
-----------------------16-14-12---------------------|
--------------------------------16-14-12------------|
-----------------------------------------15-14-12---|
----------------------------------------------------|


-----------------------------------------------12---|
--------------------------------------12-13-15------|
-----------------------------11-12-14---------------|
--------------------10-12-14------------------------|
-----------10-12-14---------------------------------|
--10-12-14------------------------------------------|


--14-15-14-12---------------------------------------|
--------------15-14-12------------------------------|
-----------------------14-12-11---------------------|
--------------------------------14-12-10------------|
-----------------------------------------14-12-10---|
----------------------------------------------------|


-----------------------------------------------10---|
--------------------------------------10-12-13------|
-----------------------------9--11-12---------------|
--------------------9--10-12------------------------|
-----------9--10-12---------------------------------|
--8--10-12------------------------------------------|


--12-14-12-10---------------------------------------|
--------------13-12-10------------------------------|
-----------------------12-11-9----------------------|
--------------------------------12-10-9-------------|
-----------------------------------------12-10-9----|
----------------------------------------------------|


-----------------------------------------------8----|
--------------------------------------8--10-12------|
-----------------------------7--9--11---------------|
--------------------7--9--10------------------------|
-----------7--9--10---------------------------------|
--7--8--10------------------------------------------|


--10-12-10-8----------------------------------------|
--------------12-10-8-------------------------------|
-----------------------11-9--7----------------------|
--------------------------------10-9--7-------------|
-----------------------------------------10-9--7----|
----------------------------------------------------|


-----------------------------------------------7----|
--------------------------------------7--8--10------|
-----------------------------5--7--9----------------|
--------------------5--7--9-------------------------|
-----------5--7--9----------------------------------|
--5--7--8-------------------------------------------|


--8--10-8--7----------------------------------------|
--------------10-8--7-------------------------------|
-----------------------9--7--5----------------------|
--------------------------------9--7--5-------------|
-----------------------------------------9--7--5----|
----------------------------------------------------|


-----------------------------------------------5----|
--------------------------------------5--7--8-------|
-----------------------------4--5--7----------------|
--------------------4--5--7-------------------------|
-----------3--5--7----------------------------------|
--3--5--7-------------------------------------------|


--7--8--7--5----------------------------------------||
--------------8--7--5-------------------------------||
-----------------------7--5--4----------------------||
--------------------------------7--5--4-------------||
-----------------------------------------7--5--3----||
----------------------------------------------------||


----------------------------------------------3----|
-------------------------------------3--5--7-------|
o---------------------------2--4--5----------------|
o------------------2--4--5-------------------------|
----------2--3--5----------------------------------|
-2--3--5-------------------------------------------|


--5--7--5--3---------------------------------------|||
--------------7--5--3------------------------------|||
-----------------------5--4--2--------------------o|||
--------------------------------5--4--2-----------o|||
-----------------------------------------5--3--2---|||
---------------------------------------------------|||


----------------------------------------------7----|
-------------------------------------7--8--10------|
o---------------------------5--7--9----------------|
o------------------5--7--9-------------------------|
----------5--7--9----------------------------------|
-5--7--8-------------------------------------------|


--8--10-8--7---------------------------------------|||
--------------10-8--7------------------------------|||
-----------------------9--7--5--------------------o|||
--------------------------------9--7--5-----------o|||
-----------------------------------------9--7--5---|||
---------------------------------------------------|||


----------------------------------------------8----|
-------------------------------------8--10-12------|
o---------------------------7--9--11---------------|
o------------------7--9--10------------------------|
----------7--9--10---------------------------------|
-7--8--10------------------------------------------|


--10-12-10-8---------------------------------------|||
--------------12-10-8------------------------------|||
-----------------------11-9--7--------------------o|||
--------------------------------10-9--7-----------o|||
-----------------------------------------10-9--7---|||
---------------------------------------------------|||


----------------------------------------------5----|
-------------------------------------5--7--8-------|
o---------------------------4--5--7----------------|
o------------------4--5--7-------------------------|
----------3--5--7----------------------------------|
-3--5--7-------------------------------------------|


--7--8--7--5---------------------------------------|||
--------------8--7--5------------------------------|||
-----------------------7--5--4--------------------o|||
--------------------------------7--5--4-----------o|||
-----------------------------------------7--5--3---|||
---------------------------------------------------|||


----------------------------------------------12---|
-------------------------------------12-13-15------|
o---------------------------11-12-14---------------|
o------------------10-12-14------------------------|
----------10-12-14---------------------------------|
-10-12-14------------------------------------------|


--14-15-14-12--------------------------------------|||
--------------15-14-12-----------------------------|||
-----------------------14-12-11-------------------o|||
--------------------------------14-12-10----------o|||
-----------------------------------------14-12-10--|||
---------------------------------------------------|||


----------------------------------------------14---|
-------------------------------------13-15-17------|
o---------------------------12-14-16---------------|
o------------------12-14-16------------------------|
----------12-14-15---------------------------------|
-12-14-15------------------------------------------|


--15-17-15-14--------------------------------------||
--------------17-15-13-----------------------------||
-----------------------16-14-12-------------------o||
--------------------------------16-14-12----------o||
-----------------------------------------15-14-12--||
---------------------------------------------------||


-----------------------------------------------3----|
--------------------------------------3--5--7-------|
-----------------------------2--4--5----------------|
--------------------2--4--5-------------------------|
-----------2--3--5----------------------------------|
--2--3--5-------------------------------------------|


--5--7--5--3----------------------------------------|-------||
--------------7--5--3-------------------------------|-------||
-----------------------5--4--2----------------------|-------||
--------------------------------5--4--2-------------|-------||
-----------------------------------------5--3--2----|-------||
----------------------------------------------------|--3----||

Attached File  Scales_workout.gp5 ( 8.99K ) Number of downloads: 30


Let me know what do you think!

Hey Alex I haven't disappeared, but I have been busy memorizing these patterns. They have really helped me! Do you have anything similar that I can use to memorize the harmonic minor positions?


--------------------
My Sound Cloud Profile: http://soundcloud.com/casinostrat

Gear I Use:

Guitars: Gibson: Les Paul Custom, ES-339, and Faded Flying V
Fender: American Stratocaster Deluxe (I think?)
Epiphone: Les Paul 56' Gold Top and Les Paul Standard, Casino
Yamaha: FG720S Accoustic

Amps: Fender Champ, Peavey Bandit 112, and an ancient Epiphone Amp:)

Effects: Digitech RP 500 Effects Pedal Picks: Dunlop Jazz IIIs

Practice, Practice, Practice, and remember Every Artist Does Get Better Eventually!

Go to the top of the page
 
+Quote Post
Alex Feather
post Nov 18 2012, 06:30 PM
Post #35


Instructor
Group Icon

Group: GMC Instructor
Posts: 4.332
Joined: 21-November 11
From: Los Angeles
Member No.: 14.398



QUOTE (casinostrat @ Nov 18 2012, 01:11 AM) *
Hey Alex I haven't disappeared, but I have been busy memorizing these patterns. They have really helped me! Do you have anything similar that I can use to memorize the harmonic minor positions?

I would suggest to work on getting those patterns into your playing before we will move to the next step!
How about I will post a backing track and will create a new assignment based on those scales and we can jam I will record my takes as well to give ideas! We can do it for a little bit and than will switch to harmonic minor!
Let me know!


--------------------
Go to the top of the page
 
+Quote Post
casinostrat
post Nov 18 2012, 10:35 PM
Post #36


GMC:er
*

Group: Members
Posts: 452
Joined: 20-January 10
From: The Appalachian Mountains
Member No.: 9.238



Sounds good to me! smile.gif


--------------------
My Sound Cloud Profile: http://soundcloud.com/casinostrat

Gear I Use:

Guitars: Gibson: Les Paul Custom, ES-339, and Faded Flying V
Fender: American Stratocaster Deluxe (I think?)
Epiphone: Les Paul 56' Gold Top and Les Paul Standard, Casino
Yamaha: FG720S Accoustic

Amps: Fender Champ, Peavey Bandit 112, and an ancient Epiphone Amp:)

Effects: Digitech RP 500 Effects Pedal Picks: Dunlop Jazz IIIs

Practice, Practice, Practice, and remember Every Artist Does Get Better Eventually!

Go to the top of the page
 
+Quote Post
Alex Feather
post Nov 20 2012, 02:21 AM
Post #37


Instructor
Group Icon

Group: GMC Instructor
Posts: 4.332
Joined: 21-November 11
From: Los Angeles
Member No.: 14.398



QUOTE (casinostrat @ Nov 18 2012, 09:35 PM) *
Sounds good to me! smile.gif

Awesome! Give me a couple of days to create a backing track for you! smile.gif


--------------------
Go to the top of the page
 
+Quote Post
Alex Feather
post Nov 27 2012, 08:44 AM
Post #38


Instructor
Group Icon

Group: GMC Instructor
Posts: 4.332
Joined: 21-November 11
From: Los Angeles
Member No.: 14.398



QUOTE (casinostrat @ Nov 18 2012, 09:35 PM) *
Sounds good to me! smile.gif

So I have created a backing track for you the chords are:
Emi7 - Ami7 - Bmi7
This track will work out perfectly if you want to get shapes down very well also I would like to use it for the future assignments!
Let me know what do you think about it smile.gif
Attached File  Backing_track_E_minor_blues.mp3 ( 9.65MB ) Number of downloads: 34


--------------------
Go to the top of the page
 
+Quote Post
casinostrat
post Nov 27 2012, 11:51 PM
Post #39


GMC:er
*

Group: Members
Posts: 452
Joined: 20-January 10
From: The Appalachian Mountains
Member No.: 9.238



QUOTE (Alex Feather @ Nov 27 2012, 07:44 AM) *
So I have created a backing track for you the chords are:
Emi7 - Ami7 - Bmi7
This track will work out perfectly if you want to get shapes down very well also I would like to use it for the future assignments!
Let me know what do you think about it smile.gif
Attached File  Backing_track_E_minor_blues.mp3 ( 9.65MB ) Number of downloads: 34

Awesome track! If I come up with any interesting solos utilizing those shapes I will post them here.


--------------------
My Sound Cloud Profile: http://soundcloud.com/casinostrat

Gear I Use:

Guitars: Gibson: Les Paul Custom, ES-339, and Faded Flying V
Fender: American Stratocaster Deluxe (I think?)
Epiphone: Les Paul 56' Gold Top and Les Paul Standard, Casino
Yamaha: FG720S Accoustic

Amps: Fender Champ, Peavey Bandit 112, and an ancient Epiphone Amp:)

Effects: Digitech RP 500 Effects Pedal Picks: Dunlop Jazz IIIs

Practice, Practice, Practice, and remember Every Artist Does Get Better Eventually!

Go to the top of the page
 
+Quote Post
Alex Feather
post Nov 29 2012, 07:49 AM
Post #40


Instructor
Group Icon

Group: GMC Instructor
Posts: 4.332
Joined: 21-November 11
From: Los Angeles
Member No.: 14.398



QUOTE (casinostrat @ Nov 27 2012, 10:51 PM) *
Awesome track! If I come up with any interesting solos utilizing those shapes I will post them here.

Sounds great! I am glad you like it!!!!
Looking forward to hear what you will come up with! smile.gif


--------------------
Go to the top of the page
 
+Quote Post

2 Pages V  < 1 2
Reply to this topicStart new topic
1 User(s) are reading this topic (1 Guests and 0 Anonymous Users)
0 Members:

 


RSS Lo-Fi Version Time is now: 29th May 2017 - 12:45 PM