Reply to this topicStart new topic
> Classical Music Picking Exercises Video Chat Tonight 11pm Los Angeles/2 Am New York/ 7 Am London Time
Alex Feather
post Aug 22 2012, 06:27 PM
Post #1


Instructor
Group Icon

Group: GMC Instructor
Posts: 4.332
Joined: 21-November 11
From: Los Angeles
Member No.: 14.398



Hi guys in today's video chat I will be showing classical music picking exercises!
Here is the tab:
E ||---------------------------------------------------|
B ||-6--5--6--4--6--5--6--4--6--5--6--4--6--5--6--4----|
G ||o--------------------------------------------------|
D ||o--------------------------------------------------|
A ||---------------------------------------------------|
E ||---------------------------------------------------|


----------------------------------------------------|
--6--5--6--3--6--5--6--3--6--5--6--3--6--5--6--3----|
----------------------------------------------------|
----------------------------------------------------|
----------------------------------------------------|
----------------------------------------------------|


-----------3-----------3-----------3-----------3----|
--6--5--6-----6--5--6-----6--5--6-----6--5--6-------|
----------------------------------------------------|
----------------------------------------------------|
----------------------------------------------------|
----------------------------------------------------|


-----------6-----------6-----------6-----------6---|||
--6--5--6-----6--5--6-----6--5--6-----6--5--6------|||
--------------------------------------------------o|||
--------------------------------------------------o|||
---------------------------------------------------|||
---------------------------------------------------|||


--------------------------------------------------||----|----|----||
-5--4--3--------6--5--4--5--4--3-----------3--4---||----|----|----||
o---------6--5--------------------6--5--6--------o||----|----|----||
o------------------------------------------------o||----|----|----||
--------------------------------------------------||----|----|----||
--------------------------------------------------||----|----|----||


---------------------------------------------------|
----------3--5-----5-----4-----4-----3-----3-------|
o2--4--5--------5-----------4-----------3----------|
o--------------------------------------------------|
---------------------------------------------------|
---------------------------------------------------|


--------------------------3-----------3------------||----|----|----||
-----------3--5-----5--------5-----5---------------||----|----|----||
--2--4--5--------5--------------5-----------------o||----|----|----||
--------------------------------------------------o||----|----|----||
---------------------------------------------------||----|----|----||
---------------------------------------------------||----|----|----||


Guitar Pro:
Attached File  Classical_music_exercises_.gp5 ( 2.73K ) Number of downloads: 63


Those exercises are bases on famous classical pieces and very fun to work on!
See you in the chat room tonight! smile.gif


--------------------
Go to the top of the page
 
+Quote Post
Alex Feather
post Aug 23 2012, 06:02 AM
Post #2


Instructor
Group Icon

Group: GMC Instructor
Posts: 4.332
Joined: 21-November 11
From: Los Angeles
Member No.: 14.398



Video chat will start in an hour!!! See you guys in the chat room!:)
https://www.guitarmasterclass.net/chat/


--------------------
Go to the top of the page
 
+Quote Post

Fast ReplyReply to this topicStart new topic
1 User(s) are reading this topic (1 Guests and 0 Anonymous Users)
0 Members:

 


RSS Lo-Fi Version Time is now: 29th March 2017 - 06:30 AM