5 Pages V  « < 3 4 5  
Reply to this topicStart new topic
> Teodorom Jazz And Theory Mentoring
teodorom
post Nov 27 2012, 08:53 AM
Post #81


GMC:er
*

Group: Members
Posts: 52
Joined: 19-September 12
From: Milano (Italy)
Member No.: 16.676



QUOTE (Alex Feather @ Nov 27 2012, 07:44 AM) *
This solo sounds very good and I like what you did with it! Very melodic and nice! Not boring at all!
I think I figured out your system smile.gif You like to compose solo first and than learn it but it is not improvisation it is more composition It is a very interesting approach and I think it will help you because you are creating phrases and learning them!
Would you like me to create some licks for you to learn so you can start using them in your improvisation as well?

I slightly disagree: "improvisation" is "real-time composition", otherwise is random notes, or monkey-like playing.
When I see people explaining what they do during this "real-time composition" I realize how far I am: they have a "real-time" knowledge of scales, of arpeggios, of melodic structures that I don't possess.
Knowledge of licks helps, but doesn't fill the gap.
They are certainly useful, so, "yes, please".
Thanks
T.M.
Go to the top of the page
 
+Quote Post
Alex Feather
post Nov 28 2012, 07:22 PM
Post #82


Instructor
Group Icon

Group: GMC Instructor
Posts: 4.332
Joined: 21-November 11
From: Los Angeles
Member No.: 14.398



QUOTE (teodorom @ Nov 27 2012, 07:53 AM) *
I slightly disagree: "improvisation" is "real-time composition", otherwise is random notes, or monkey-like playing.
When I see people explaining what they do during this "real-time composition" I realize how far I am: they have a "real-time" knowledge of scales, of arpeggios, of melodic structures that I don't possess.
Knowledge of licks helps, but doesn't fill the gap.
They are certainly useful, so, "yes, please".
Thanks
T.M.

Wow you really put it from a very interesting angle! And I agree it is a real time composition!
I have also noticed that what helps is to listen a lot of different music and get influences! Because your ear and your mind picking it up and eventually it will translate on the fretboard!
I will post licks in a little bit! smile.gif


--------------------
Go to the top of the page
 
+Quote Post
Alex Feather
post Dec 3 2012, 07:40 PM
Post #83


Instructor
Group Icon

Group: GMC Instructor
Posts: 4.332
Joined: 21-November 11
From: Los Angeles
Member No.: 14.398



QUOTE (Alex Feather @ Nov 28 2012, 06:22 PM) *
Wow you really put it from a very interesting angle! And I agree it is a real time composition!
I have also noticed that what helps is to listen a lot of different music and get influences! Because your ear and your mind picking it up and eventually it will translate on the fretboard!
I will post licks in a little bit! smile.gif

Hi I have created some cool licks for you
I chose different famous guitar players
Those are II - V - I licks
here is the tab
Pista 1
Pat Martno
E E E E E E E E E E E E E E E E
E||----------------------------------|--------------------------|
B||----------------------------------|-----------------------5--|
G||----------------------------------|-----------4--7--4--5-----|
D||----------------------------5-----|--4--5--7-----------------|
A||-------------------5--6--7-----7--|--------------------------|
E||--5----------7--8-----------------|--------------------------|


E E E E E E E E E E E E E E E E E E E E H
-----7--6-----5-----------|--------------------------|-----------------------|
--8--------8-----8--7--5--|-----------5--------------|-----------------------|
--------------------------|--7--4--5-----4--5--4-----|-----------------------|
--------------------------|-----------------------7--|--5--------------------|
--------------------------|--------------------------|-----7--5--7-----------|
--------------------------|--------------------------|-----------------------|


W W
-------------------|-------------------|
-------------------|-------------------|
-------------------|-------------------|
-------------------|-------------------|
-------------------|-------------------|
-------------------|-------------------|


(V) Wes Montgomery (V)
Q E E E E E E E E E E E E E E
---------------------------3------------|-----------------------------|
------------------------5-----6--5p--3--|-----------------------------|
----------------------------------------|--5---4p--3--------2---------|
----------------------------------------|----------------3-----5--3h--|
----------------------------------------|-------------5---------------|
----------------------------------------|-----------------------------|


(I) (V) (I)
H H E E E E E E E E W
--------------------|-------------------3--3-----|-------------------|
--------------------|-------------3--6--------6--|--5----------------|
--------------------|--5---3h--4-----------------|-------------------|
--2-----------------|----------------------------|-------------------|
--------------------|----------------------------|-------------------|
--------------------|----------------------------|-------------------|


Mike Stern
Cm7 F7
W W H Q E E
-------------------|-------------------|------------------------|
-------------------|-------------------|------------------------|
-------------------|-------------------|---------------------8--|
-------------------|-------------------|------------------------|
-------------------|-------------------|------------------------|
-------------------|-------------------|------------------------|


Bb6 Bb7 Eb6 Ebm6
Q E E E E E E Q E S S E E E E
---------------------------|-----------------------------|
---------------------------|-----------------------------|
--L----7--5----------------|-----------------------------|
-------------8---7p--6--8--|--5----L--6-4-3-------6------|
---------------------------|-------------------6-----6h--|
---------------------------|-----------------------------|


Dm7
E E Q H W W
-----------------------|-------------------|-------------------|
-----------------------|-------------------|-------------------|
-----------------------|-------------------|-------------------|
------3--L-------------|-------------------|-------------------|
--5--------------------|-------------------|-------------------|
-----------------------|-------------------|-------------------|


Bbm7 Charlie Parker Eb7
|--3--|
E E E E E E E E E E E E E E E E E
-------------------------------------------|------------------------------|
-------------------------------------------|------------------------------|
--8-------------------6--------5-----------|---------6-----5--7--5--4-----|
----------------------------6-----8-----6--|--5---8-----8--------------6--|
-------------------------8-----------8-----|------------------------------|
-------------------------------------------|------------------------------|


Abmaj7
H H W W
--------------------|-------------------|-------------------|
--------------------|-------------------|-------------------|
--------------------|-------------------|-------------------|
--5-----------------|-------------------|-------------------|
--------------------|-------------------|-------------------|
--------------------|-------------------|-------------------|


G7 Dominant Licks
E E E E E E E E E E E E H
------------------------------------------|-----------------------|
--3-----------------5--6--5--3------------|-----------------------|
--------------------------------5--2--3S--|--4-----2--------------|
------------------------------------------|-----5-----5-----------|
------------------------------------------|-----------------------|
------------------------------------------|-----------------------|


E E E E E E E E E E E E H
--------------------------------|-------------------------|
--------------------------------|-------------------------|
------9--10--9------------------|-------------------------|
--12------------12--10p--9------|--9------9---------------|
----------------------------12--|-----12-----10-----------|
--------------------------------|-------------------------|


E E E E E E E E E E E E H
---------------------------------|--------------------------|
---------------------------------|--------------------------|
---------------------12----------|-------------12-----------|
-----12p--10------9------7--12h--|--10------9---------------|
--------------12-----------------|------12------------------|
---------------------------------|--------------------------|


E E E E E E E E E E E E E E Q
--15--14--13--12--------------12--|--------------------------------|
------------------15------13------|--15--13--12--------------------|
----------------------14----------|--------------14--12--11--10----|
----------------------------------|--------------------------------|
----------------------------------|--------------------------------|
----------------------------------|--------------------------------|


|---3---| |---3---|
Q E E E Q E E E
--12----9----------12---------------|
-----------10------------9----------|
---------------10-----------10------|
--------------------------------10--|
------------------------------------|
------------------------------------|


|---3---| |---3---| |---3---| |---3---| ---
E E E E E E E E E E E E
--12p--9--12--9----------12p--9--12--9----------|-----||
-----------------10---------------------10------|-----||
---------------------10---------------------10--|-----||
------------------------------------------------|-----||
------------------------------------------------|-----||
------------------------------------------------|-----||





Here is a guitar pro file
Attached File  II_V_I.gp3 ( 2.7K ) Number of downloads: 51


Let me know what do you think


--------------------
Go to the top of the page
 
+Quote Post

5 Pages V  « < 3 4 5
Reply to this topicStart new topic
1 User(s) are reading this topic (1 Guests and 0 Anonymous Users)
0 Members:

 


RSS Lo-Fi Version Time is now: 25th May 2017 - 04:17 AM