Reply to this topicStart new topic
> Video Chat About Legato Tomorrow At 4 Pm London Time
Alex Feather
post Oct 3 2012, 08:09 AM
Post #1


Instructor
Group Icon

Group: GMC Instructor
Posts: 4.332
Joined: 21-November 11
From: Los Angeles
Member No.: 14.398



Hi Guys in tomorrow video chat we will be talking about legato I will show you how to work and develop a solid legato technique and bring it up to the speed!
We will be working on 4 exercises

E |--8--5--7--8--7--5----------------------------------|----|
B |--------------------8--5--7--8--7--5----------------|----|
G |--------------------------------------7-----5-------|----|
D |----------------------------------------------------|----|
A |----------------------------------------------------|----|
E |----------------------------------------------------|----|


----------------------------------------------------|----|
----------------------------------------------------|----|
--7--5--6--4--5--6--7--5--6--4--5--6--7--5--6--4----|----|
----------------------------------------------------|----|
----------------------------------------------------|----|
----------------------------------------------------|----|


----------------------------------------------------|----|
----------------------------------------------------|----|
--4--5--7--5--4--5--7--9--7--5--4--5--7--5--4--5----|----|
----------------------------------------------------|----|
----------------------------------------------------|----|
----------------------------------------------------|----|


-----------------------------5--7--8----------------||
-----------5--7--8-----------------------------5----||
--------------------4--5--7-------------------------||
--4--5--7-----------------------------4--5--7-------||
----------------------------------------------------||
----------------------------------------------------||


Here is Guitar pro file
Attached File  Legatto_exercises.gp5 ( 2.2K ) Number of downloads: 31

See you in the chat room! smile.gif


--------------------
Go to the top of the page
 
+Quote Post
Alex Feather
post Oct 3 2012, 03:40 PM
Post #2


Instructor
Group Icon

Group: GMC Instructor
Posts: 4.332
Joined: 21-November 11
From: Los Angeles
Member No.: 14.398



Video chat will start in 15 minutes! See you guys in the chat room! smile.gif


--------------------
Go to the top of the page
 
+Quote Post

Fast ReplyReply to this topicStart new topic
1 User(s) are reading this topic (1 Guests and 0 Anonymous Users)
0 Members:

 


RSS Lo-Fi Version Time is now: 24th January 2017 - 04:15 PM