Reply to this topicStart new topic
> Video Chat About Joe Pass Arpeggio Technique At 4 Pm London Time
Alex Feather
post Nov 18 2012, 08:52 AM
Post #1


Instructor
Group Icon

Group: GMC Instructor
Posts: 4.332
Joined: 21-November 11
From: Los Angeles
Member No.: 14.398



Hi guys in todays video chat I will explain how to use Joe Pass arpeggio technique
Here is the tab
E |----------------------------------------------------|
B |----------------------------------------------------|
G |--------------------------------------------2-------|
D |-----------------2--------4-----2--5-----4-----2----|
A |-----2--5-----3-----2--5-----3--------5-------------|
E |--3--------5----------------------------------------|


-----------------------------------------2----------|
-----------------------3-----1--5-----3--------5----|
-----4-----2--5-----4-----2--------4--------5-------|
--5-----4--------5----------------------------------|
----------------------------------------------------|
----------------------------------------------------|


--3-----2--5-----3--7L-7----------------------------|----|
-----3--------5-------------------------------------|----|
----------------------------------------------------|----|
----------------------------------------------------|----|
----------------------------------------------------|----|
----------------------------------------------------|----|


It has all triads from G major scale as you can see all triads played in the same range and based on vertical approach
I will explain how to combine those triads and apply them into your playing!
See you at 4 PM


--------------------
Go to the top of the page
 
+Quote Post
Alex Feather
post Nov 18 2012, 04:37 PM
Post #2


Instructor
Group Icon

Group: GMC Instructor
Posts: 4.332
Joined: 21-November 11
From: Los Angeles
Member No.: 14.398



Vide chat starts in 25 minutes!!! See you in the chat room!


--------------------
Go to the top of the page
 
+Quote Post

Fast ReplyReply to this topicStart new topic
1 User(s) are reading this topic (1 Guests and 0 Anonymous Users)
0 Members:

 


RSS Lo-Fi Version Time is now: 20th November 2017 - 03:16 AM