Reply to this topicStart new topic
> A Need A Little Help On A Lesson
liveOASISforever
post Oct 14 2013, 06:49 PM
Post #1


GMC:er
*

Group: Members
Posts: 596
Joined: 14-March 10
From: Scotland
Member No.: 9.844



The last part of lesson step 3 the tab seems incorrect.I think I have got the notes but dont really know the timing of it.Can anyone give me a little help. Thanks.





https://www.guitarmasterclass.net/ls/Eric_Clapton_Style/

This post has been edited by liveOASISforever: Oct 14 2013, 06:50 PM
Go to the top of the page
 
+Quote Post
Gabriel Leopardi
post Oct 14 2013, 11:00 PM
Post #2


Instructor
Group Icon

Group: GMC Instructor
Posts: 28.105
Joined: 3-March 07
From: Argentina
Member No.: 1.289



Hi mate, the tab there is wrong. This is what Laszlo is playing in the video. We will fix it in the lesson, thanks for informing!


Dm B
PM PM
E E E S S E S S E E E E E S S E S S E E
--------------------------------------|--------------------------------------|
--------------------------------------|--------------------------------------|
--------------------------------------|----------10--------12--------12--10--|
----------12--------12--------10--12--|--------------------------------------|
--------------------------------------|--------------------------------------|
--10--10------10-10-----10-10---------|--10--10------10-10-----10-10---------|


Attached File  GP.gp5 ( 1.51K ) Number of downloads: 30


Let me know if this clarifies what you were asking.


--------------------
My lessons

Do you need a Guitar Plan?
Join Gab's Army

Check my band:Cirse
Check my soundcloud:Soundcloud

Please subscribe to my:Youtube Channel
Go to the top of the page
 
+Quote Post
liveOASISforever
post Oct 15 2013, 06:08 AM
Post #3


GMC:er
*

Group: Members
Posts: 596
Joined: 14-March 10
From: Scotland
Member No.: 9.844



QUOTE (Gabriel Leopardi @ Oct 14 2013, 11:00 PM) *
Hi mate, the tab there is wrong. This is what Laszlo is playing in the video. We will fix it in the lesson, thanks for informing!


Dm B
PM PM
E E E S S E S S E E E E E S S E S S E E
--------------------------------------|--------------------------------------|
--------------------------------------|--------------------------------------|
--------------------------------------|----------10--------12--------12--10--|
----------12--------12--------10--12--|--------------------------------------|
--------------------------------------|--------------------------------------|
--10--10------10-10-----10-10---------|--10--10------10-10-----10-10---------|


Attached File  GP.gp5 ( 1.51K ) Number of downloads: 30


Let me know if this clarifies what you were asking.


This is perfect Gabriel thanks very much smile.gif
Go to the top of the page
 
+Quote Post
Gabriel Leopardi
post Oct 15 2013, 02:14 PM
Post #4


Instructor
Group Icon

Group: GMC Instructor
Posts: 28.105
Joined: 3-March 07
From: Argentina
Member No.: 1.289



QUOTE (liveOASISforever @ Oct 15 2013, 02:08 AM) *
This is perfect Gabriel thanks very much smile.gif



No problem mate! Thanks for discovering the issue. wink.gif

The lesson is now fixed.


--------------------
My lessons

Do you need a Guitar Plan?
Join Gab's Army

Check my band:Cirse
Check my soundcloud:Soundcloud

Please subscribe to my:Youtube Channel
Go to the top of the page
 
+Quote Post

Fast ReplyReply to this topicStart new topic
1 User(s) are reading this topic (1 Guests and 0 Anonymous Users)
0 Members:

 


RSS Lo-Fi Version Time is now: 24th January 2017 - 08:13 AM