Reply to this topicStart new topic
> Can't Find The Right Scale!
manuh
post Jan 20 2014, 11:50 PM
Post #1


Learning Roadie
*

Group: Members
Posts: 59
Joined: 28-May 11
Member No.: 12.933



hey!

ive played a lick over simple 3 chord-progression and got some 'mystical' sounding shit.. i checked out a online scale finder to look which scale im playing over this progression but i cant find a scale which contains this notes.

chords: C - D - E

lick: A - B - C# - F#


D |--------------16h11---------|-------|-------|----------------|
A |--16h12----12-------12s14L--|--14~--|--12---|----------------|
F |--------13------------------|-------|-------|----------------|
C |----------------------------|-------|-------|----------------|
G |----------------------------|-------|-------|----------------|
C |----------------------------|-------|-------|----------------|


--------------16h11---------|-------|-------|----------------||
--16h12----12-------12s14L--|--14~--|--12---|----------------||
--------13------------------|-------|-------|----------------||
----------------------------|-------|-------|----------------||
----------------------------|-------|-------|----------------||
----------------------------|-------|-------|----------------||


i tabbed it on guitar pro smile.gif

im not sure if my ear is playing a prank or if its okay to play this lick over the chord progression.

need help!! biggrin.gif big thanks!
Attached File(s)
Attached File  crazy.gp5 ( 2.73K ) Number of downloads: 74
 


--------------------
check out my new band: Trip To New York
Go to the top of the page
 
+Quote Post
The Professor
post Jan 20 2014, 11:54 PM
Post #2


Theory Instructor
Group Icon

Group: GMC Instructor
Posts: 888
Joined: 8-January 13
From: Manchester UK
Member No.: 17.394



Hey

It looks like a section of an A Lydian scale. So E major. It has some notes that would fit over these chords and others that will clash, like C# over C and D# over D. So that's what you are hearing, the tension from those notes over the chords.


--------------------
Ask me anything on the theory board. Follow my theory course. Check out my personal site
Go to the top of the page
 
+Quote Post

Reply to this topicStart new topic
1 User(s) are reading this topic (1 Guests and 0 Anonymous Users)
0 Members:

 


RSS Lo-Fi Version Time is now: 16th December 2017 - 12:45 AM