2 Pages V  < 1 2  
Reply to this topicStart new topic
> Gmc Hero Licks Collection
Phil66
post Feb 16 2016, 09:13 PM
Post #21


Learning Apprentice Player
*

Group: Members
Posts: 3.774
Joined: 5-July 14
From: The Black Country, England
Member No.: 19.975



Lesson: https://www.guitarmasterclass.net/ls/Beginner-Soloing-1/

Instructor: Darius Wave:

Just the whole lesson is a hero lick for me. smile.gif

In particular that superbly controlled bend and release at 0:14.
|------------------------|
|------------------------|
|-----------------5--4b--|
|--L--------L--5---------|
|------------------------|
|------------------------|






--------------------

GMC CERTIFICATE

“Success is not obtained overnight. It comes in installments; you get a little bit today, a little bit tomorrow until the whole package is given out. The day you procrastinate, you lose that day's success.”
Israelmore Ayivor
Go to the top of the page
 
+Quote Post
ChrisGLP
post Feb 20 2016, 05:50 AM
Post #22


Learning Apprentice Player
*

Group: Members
Posts: 172
Joined: 15-July 15
From: Germany
Member No.: 21.100



Thx Monica, AK Rich, Phil, bleez, n3m57.... Please add some more licks... cool.gif

Here another of my favourite licks:

Lesson: https://www.guitarmasterclass.net/ls/12-Cla...ing-Rock-Licks/

Difficulty: 5

Instructor: Guido Bungenstock

Time: 00:16

Lick:


Attached image(s)
Attached Image
 
Go to the top of the page
 
+Quote Post
ChrisGLP
post Feb 20 2016, 06:22 AM
Post #23


Learning Apprentice Player
*

Group: Members
Posts: 172
Joined: 15-July 15
From: Germany
Member No.: 21.100



and one more lick....

Lesson: https://www.guitarmasterclass.net/ls/12-Cla...ing-Rock-Licks/

Difficulty: 5

Instructor: Guido Bungenstock

Time: 00:58

Lick:


Attached image(s)
Attached Image
 
Go to the top of the page
 
+Quote Post
Arpeggio
post Feb 20 2016, 02:59 PM
Post #24


GMC:er
*

Group: Members
Posts: 113
Joined: 1-June 12
Member No.: 15.994



This is fantastic. https://www.guitarmasterclass.net/ls/Electro-Metal-Tune/

I like Stephan's use of Chromatic https://www.guitarmasterclass.net/ls/jazz_funk_licks/

Anything from those.



--------------------
Founder of new startup social network site that brings the good aspects of MySpace, Twitter and FaceBook together.

MyTwitFace.
Go to the top of the page
 
+Quote Post
n3m57
post Feb 20 2016, 07:26 PM
Post #25


Learning Roadie
*

Group: Members
Posts: 112
Joined: 17-March 15
From: France
Member No.: 20.824



Well,
I continue smile.gif

Song from the master Ben Higgins : Ilios

Attached Image
Attached Image

Lick start at 2:58 :


Original post : https://www.guitarmasterclass.net/guitar_fo...showtopic=54683

This post has been edited by n3m57: Feb 20 2016, 07:27 PM
Go to the top of the page
 
+Quote Post
Phil66
post Feb 20 2016, 08:16 PM
Post #26


Learning Apprentice Player
*

Group: Members
Posts: 3.774
Joined: 5-July 14
From: The Black Country, England
Member No.: 19.975



[/quote]
QUOTE (ChrisGLP @ Feb 20 2016, 04:50 AM) *
Thx Monica, AK Rich, Phil, bleez, n3m57.... Please add some more licks... cool.gif


I haven't done many lessons with hero licks in Chris, you don't really get many in levels 1 and 2.

The ascending run from 0:29 is good in this lesson.
https://www.guitarmasterclass.net/ls/Satriani-Made-Easy-Rock/

|-----------------------|-------------------------|-------------------------|--15~------17S------19----|
|-----------------------|-------------------------|--13~------15------17----|--------------------------|
|-----------------------|--14~------16------17----|-------------------------|--------------------------|
|--7~------9------10----|-------------------------|-------------------------|--------------------------|
|-----------------------|-------------------------|-------------------------|--------------------------|
|-----------------------|-------------------------|-------------------------|--------------------------|


--17~------14br------------|----------------------|
---------------------15----|--17~-----------------|
---------------------------|----------------------|
---------------------------|----------------------|
---------------------------|----------------------|
---------------------------|----------------------|


This post has been edited by Phil66: Feb 20 2016, 08:17 PM


--------------------

GMC CERTIFICATE

“Success is not obtained overnight. It comes in installments; you get a little bit today, a little bit tomorrow until the whole package is given out. The day you procrastinate, you lose that day's success.”
Israelmore Ayivor
Go to the top of the page
 
+Quote Post
Jim S.
post Feb 20 2016, 08:37 PM
Post #27


Learning Rock Star
*

Group: Members
Posts: 669
Joined: 7-April 13
Member No.: 18.014



Ha Ha nice one! One of my favorite licks which I am currently working on is this one at 1:10 on up. There are two.... The rest of the track is what brought me to this lesson but when I really heard those licks I felt kinda silly inside...

https://www.guitarmasterclass.net/ls/Slow-RnB-Jam/
Go to the top of the page
 
+Quote Post
Beat Zbinden
post Feb 28 2016, 09:31 AM
Post #28


Experienced Rock Star
*

Group: Members
Posts: 86
Joined: 10-October 12
From: Swizerland
Member No.: 16.806



I like this...

Lesson: Nocturnal Vision/KMC Meatl

https://www.guitarmasterclass.net/solo-guit...-vision-lesson/

Time 1:08

e-------------------------------------------------------------------------------
B-------------------8-11-8h11p8-------------------------------------1h3p1-------
G--------5-8-7br--5-------------10-12~---10-8-10~----5---5-10-7~----------3--3b~
D------5------------------------------------------------------------------------
A--3-6--------------------------------------------------------------------------
E-------------------------------------------------------------------------------

|--3-| |--3-| |--3-| |--3--| |--3--| |--3--| |--3--|
--------8-------8-------------------8-13-11b-11-8-----8-----------------------
------8-------8-----------------11b---------------11b---11-8-----8------------
--10b-----10b-----11-10-8-10~--------------------------------10b---8~--10p8p7~
------------------------------------------------------------------------------
------------------------------------------------------------------------------
------------------------------------------------------------------------------

This post has been edited by Beat Zbinden: Feb 28 2016, 09:37 AM
Go to the top of the page
 
+Quote Post
Gabriel Leopardi
post Feb 28 2016, 05:24 PM
Post #29


Instructor
Group Icon

Group: GMC Instructor
Posts: 28.432
Joined: 3-March 07
From: Argentina
Member No.: 1.289



I'm amazed of this thread guys. Keep this licks coming! The book is really promising. smile.gif


--------------------
My lessons

Do you need a Guitar Plan?
Join Gab's Army

Check my band:Cirse
Check my soundcloud:Soundcloud

Please subscribe to my:Youtube Channel
Go to the top of the page
 
+Quote Post
AK Rich
post Mar 1 2016, 05:03 PM
Post #30


Learning Guitar Hero
*

Group: Members
Posts: 2.466
Joined: 10-September 11
From: Big Lake, Alaska
Member No.: 13.839



Here is one from Marcus Lavendell's Evening Blues lesson.

Lesson: https://www.guitarmasterclass.net/solo-guit...g-blues-lesson/

Difficulty: 5

Instructor Marcus Lavendell

Time: :30 thru :40 seconds

Licks: Part 4 and 5 of the lesson
Go to the top of the page
 
+Quote Post
Gitarrero
post Mar 1 2016, 08:09 PM
Post #31


Accomplished Rock Star
Group Icon

Group: Student Instructor
Posts: 4.051
Joined: 24-June 08
From: Rottweil, Germany
Member No.: 5.361



Ha, too many to count!

Trond's beginner rock solo is awesome, especially from 0:44 to 1:00.

https://www.guitarmasterclass.net/solo-guit...-solo-beginner/

And of course Lian's power metal solo:

https://www.guitarmasterclass.net/ls/Melodi...wer_Metal_Solo/

If more suggestions are needed, I'm happy to name a few more!

Christian


--------------------
Check my band project with fellow GMCer VilleFIN
Facebook
Youtube
Soundcloud
Twitter
Instagram



Go to the top of the page
 
+Quote Post

2 Pages V  < 1 2
Fast ReplyReply to this topicStart new topic
1 User(s) are reading this topic (1 Guests and 0 Anonymous Users)
0 Members:

 


RSS Lo-Fi Version Time is now: 26th March 2017 - 08:19 AM