Reply to this topicStart new topic
> Happy Bithday Solo Style
MattE
post Aug 4 2007, 06:31 AM
Post #1


GMC:er
*

Group: Members
Posts: 173
Joined: 16-May 07
From: North Carolina, USA
Member No.: 1.878



Ok, so this may be an extremely out there question, but has anybody possibly played happy birthday, but kinda added their own licks inbetween, kinda like doing Happy Birthday Yngwie style?

If so...do you happen to have it tabbed out? If so, post it here biggrin.gif

My girlfriend's mother's birthday is in a few days, and I wanted to give her a little bit of originality tongue.gif

Thanks everyone

-Matt
Go to the top of the page
 
+Quote Post
JOhn
post Aug 4 2007, 06:47 AM
Post #2


GMC:er
*

Group: Members
Posts: 296
Joined: 28-May 07
Member No.: 1.933



QUOTE (MattE @ Aug 4 2007, 03:31 PM) *
Ok, so this may be an extremely out there question, but has anybody possibly played happy birthday, but kinda added their own licks inbetween, kinda like doing Happy Birthday Yngwie style?

If so...do you happen to have it tabbed out? If so, post it here biggrin.gif

My girlfriend's mother's birthday is in a few days, and I wanted to give her a little bit of originality tongue.gif

Thanks everyone

-Matt


bit of originality? if you want that why don't you write it yourself?


--------------------
The only man it's OK to love is Paul Gilbert.
Go to the top of the page
 
+Quote Post
ibanezkiller
post Aug 4 2007, 07:09 AM
Post #3


GMC:er
*

Group: Members
Posts: 282
Joined: 7-July 07
Member No.: 2.262



QUOTE (JOhn @ Aug 4 2007, 01:47 AM) *
bit of originality? if you want that why don't you write it yourself?


HA. nice ... searh misc. tabs in google... i bet you can find it there! smile.gif


--------------------
METALLICA ROCKS!
Go to the top of the page
 
+Quote Post
MattE
post Aug 4 2007, 04:44 PM
Post #4


GMC:er
*

Group: Members
Posts: 173
Joined: 16-May 07
From: North Carolina, USA
Member No.: 1.878



QUOTE (ibanezkiller @ Aug 4 2007, 07:09 AM) *
HA. nice ... searh misc. tabs in google... i bet you can find it there! smile.gif


Doh, should have tried that in the first place

Thanks for the suggestion biggrin.gif
Go to the top of the page
 
+Quote Post
Nick325
post Aug 4 2007, 04:56 PM
Post #5


GMC:er
*

Group: Members
Posts: 1.996
Joined: 24-July 07
From: Long Island, NY
Member No.: 2.387



----------------------------------------------------------------------------
----------------------------------------------------------------------------
---------------------------------------------------------------------------
----------------5-4------------7-5--------9-5-5-5-4-2-10-10-9-5-7-5---
------5-5-7-5-------5-5-7-5--------5-5----------------------------------
----------------------------------------------------------------------------

-------------------
-------------------
-------------------
-------------------
-5-7-5-8vvvvvv
-------------------
Go to the top of the page
 
+Quote Post
MattE
post Aug 4 2007, 06:00 PM
Post #6


GMC:er
*

Group: Members
Posts: 173
Joined: 16-May 07
From: North Carolina, USA
Member No.: 1.878



QUOTE (Nick325 @ Aug 4 2007, 04:56 PM) *
----------------------------------------------------------------------------
----------------------------------------------------------------------------
---------------------------------------------------------------------------
----------------5-4------------7-5--------9-5-5-5-4-2-10-10-9-5-7-5---
------5-5-7-5-------5-5-7-5--------5-5----------------------------------
----------------------------------------------------------------------------

-------------------
-------------------
-------------------
-------------------
-5-7-5-8vvvvvv
-------------------



that's actually the version I play
I kinda wanted to add a couple runs in between pieces though

Anybody have any run suggestions?
Go to the top of the page
 
+Quote Post

Fast ReplyReply to this topicStart new topic
1 User(s) are reading this topic (1 Guests and 0 Anonymous Users)
0 Members:

 


RSS Lo-Fi Version Time is now: 16th December 2017 - 03:48 PM