Reply to this topicStart new topic
> Guitar Scale In C Mixolydian, I can't find this lesson???
RobM
post Aug 25 2007, 08:19 AM
Post #1


GMC:er
*

Group: Members
Posts: 300
Joined: 19-July 07
From: noneyaa
Member No.: 2.353



Any help would be appreciated in finding this one.


--------------------
You wish.
Go to the top of the page
 
+Quote Post
Nick325
post Aug 25 2007, 08:26 AM
Post #2


GMC:er
*

Group: Members
Posts: 1.996
Joined: 24-July 07
From: Long Island, NY
Member No.: 2.387



is this what your looking for
Go to the top of the page
 
+Quote Post
RobM
post Aug 25 2007, 09:56 AM
Post #3


GMC:er
*

Group: Members
Posts: 300
Joined: 19-July 07
From: noneyaa
Member No.: 2.353



QUOTE (Nick325 @ Aug 25 2007, 03:26 AM) *
is this what your looking for



No it's called Guitar scale in C mixolydian track, it was recently on as a new lesson but i cannot seem to find it anywhere.

I starts like this:
E||--------------------|--5-8-7-6-----------
B||--------------------|--5-6-8--------------
G||--5-7-8p-7p-5--5-|--7-8----------------
D||--5-7-------7--7--|----------------------
A||--5-6-7------------|----------------------
E||--/8----------------|----------------------

E||--------------------|--8-9-10------------
B||--------------------|--8------------------
G||--/10-9-8---------|--8-9-10------------
D||--10-9-8-----8----|--9-10--------------
A||--10-9-8-9-10----|----------------------
E||--------------------|----------------------

I forget who the teacher was?

This post has been edited by RobM: Aug 25 2007, 10:15 AM


--------------------
You wish.
Go to the top of the page
 
+Quote Post
RobM
post Aug 25 2007, 10:17 AM
Post #4


GMC:er
*

Group: Members
Posts: 300
Joined: 19-July 07
From: noneyaa
Member No.: 2.353



QUOTE (RobM @ Aug 25 2007, 04:56 AM) *
No it's called Guitar scale in C mixolydian track, it was recently on as a new lesson but i cannot seem to find it anywhere.

I starts like this:
E||--------------------|--5-8-7-6-----------
B||--------------------|--5-6-8--------------
G||--5-7-8p-7p-5--5-|--7-8----------------
D||--5-7-------7--7--|----------------------
A||--5-6-7------------|----------------------
E||--/8----------------|----------------------

E||--------------------|--8-9-10------------
B||--------------------|--8------------------
G||--/10-9-8---------|--8-9-10------------
D||--10-9-8-----8----|--9-10--------------
A||--10-9-8-9-10----|----------------------
E||--------------------|----------------------

I forget who the teacher was?


Found it, it's called Chromatic scale lesson and Dave Walliman is the teacher,


--------------------
You wish.
Go to the top of the page
 
+Quote Post

Fast ReplyReply to this topicStart new topic
1 User(s) are reading this topic (1 Guests and 0 Anonymous Users)
0 Members:

 


RSS Lo-Fi Version Time is now: 18th October 2017 - 05:29 PM