Reply to this topicStart new topic
> All Gmcer's...post Your Favy Short Licks Here!, Because I'm bored...
drummingguitaris...
post Nov 4 2007, 04:41 AM
Post #1


GMC:er
*

Group: Members
Posts: 140
Joined: 4-April 07
From: Birmingham, AL, USA
Member No.: 1.476



Just get to a good style (and to make this an ungodly popular thread, muhahahahahaha)...please post a couple of your favorite little licks you like to noodle around on here. I'll start with some of mine...

e -------------------------------
B ----10------------------------
G 9b-----9br--9p7-7h---7v~--
D -----------------------9-------
A -------------------------------
E --------------------------------

Little bluesy, played best a moderate tempo.


Another one:

e 7h9p7-7h9p7-7h9p7-79hp7-7h10p7-7h10p7-7h10p7-7h10p7
B --------------------------------------------------------------------
G --------------------------------------------------------------------
D ---------------------------------------------------------------------
A ---------------------------------------------------------------------
E ----------------------------------------------------------------------

Triplet riff, the faster, the BETTER!

Let's see what all GMCer's play on, and let's trade some licks! smile.gif cool.gif


--------------------
-->Chris D.<--

My Gear:
Fender DG-xxx Acoustic/Electric
Crate GX-15 series
Ibanez GRG170DX Electric w/ FR Trem
My heart, imagination, hopes, and dreams.

My top 5 influences:
Stevie Ray Vaughan
Carlos Augusto Alves Santana
Saul Hudson (Slash)
Eric Patrick Clapton
Kirk Lee Hammett

QUOTE
thedarkblues06 wrote:

jpast wrote:

He wishes he was in the minority. Nothing like making out with guys to stick it to the man. (Pun intended)
(Off-hand comment made about Pete Wentz wishing he was gay.)
Go to the top of the page
 
+Quote Post
DeepRoots
post Nov 4 2007, 04:50 AM
Post #2


Get to da Chopper!
Group Icon

Group: GMC Senior
Posts: 2.700
Joined: 18-March 07
From: South Wales, UK
Member No.: 1.374



Awesome idea man! I definabably lack short lick vocabulary......

this thread will be unstoppable...its powers; Godly.....<evil laugh fade out>
Go to the top of the page
 
+Quote Post
drummingguitaris...
post Nov 4 2007, 05:03 AM
Post #3


GMC:er
*

Group: Members
Posts: 140
Joined: 4-April 07
From: Birmingham, AL, USA
Member No.: 1.476



QUOTE (DeepRoots @ Nov 3 2007, 10:50 PM) *
Awesome idea man! I definabably lack short lick vocabulary......

this thread will be unstoppable...its powers; Godly.....<evil laugh fade out>



I highly agree. Bump for moar epic riffs/licks!!!

Here's a dark rock/tritone variation that sounds SICK with distortion, triplet feel:
(2/0 is std. E5 power chord)

e
B
G
D
A 2--2-----2----1p0------ 2~
E 0--0h3--0--x------3v---0~


--------------------
-->Chris D.<--

My Gear:
Fender DG-xxx Acoustic/Electric
Crate GX-15 series
Ibanez GRG170DX Electric w/ FR Trem
My heart, imagination, hopes, and dreams.

My top 5 influences:
Stevie Ray Vaughan
Carlos Augusto Alves Santana
Saul Hudson (Slash)
Eric Patrick Clapton
Kirk Lee Hammett

QUOTE
thedarkblues06 wrote:

jpast wrote:

He wishes he was in the minority. Nothing like making out with guys to stick it to the man. (Pun intended)
(Off-hand comment made about Pete Wentz wishing he was gay.)
Go to the top of the page
 
+Quote Post
FretDancer69
post Nov 4 2007, 06:10 AM
Post #4


GMC:er
*

Group: Passive
Posts: 2.442
Joined: 11-June 07
From: Honduras
Member No.: 2.062



Well here are some licks i like:

This one is a pentatonic speed asscent.

e|----------------------------------------------------------------12--|
b|----------------------------------------------12----12-15-12-15-----|
g|----------------------------12----12-14-12-14----14-----------------|
d|----------12----12-14-12-14----14-----------------------------------|
a|-14-12-14----14-----------------------------------------------------|
e|--------------------------------------------------------------------|


heres a 5-string sweep combined with 3-string sweep lick:


e|-------------------------12---15p12-------------------12---13p10----------------10-----11p8------------------------8----|
b|--------------------13-----------------13--------13------------------11-------11-----------------9-----------9---------|
g|---------------12----------------------------12----------------------------10---------------------------8-------------|
d|---------14--------------------------------------------------------------------------------------------------------|
a|----15--------------------------------------------------------------------------------------------------------------|
e|-------------------------------------------------------------------------------------------------------------------|


i usually build more licks based on the ones i just showed you and play them with different techniques, feeling, etc.

This post has been edited by FretDancer69: Nov 4 2007, 06:11 AM


--------------------
Playing Guitar Since: December 2006
Go to the top of the page
 
+Quote Post
PolackHax0r
post Nov 4 2007, 06:58 AM
Post #5


GMC:er
*

Group: Members
Posts: 177
Joined: 11-October 07
From: Georgia, Vermont
Member No.: 3.021



This is one that I came up with a few day ago. I have another, but don't have time to tab it right now. So here is this one:

e|----------------------------------17-19-15/12-15-17-10-12--|
b|----------------19-21-17/15-17-------------------------------|
g|-------17----19-------------------------------------------------|
d|----21----19----------------------------------------------------|
a|-19-------------------------------------------------------------|
e|-----------------------------------------------------------------|

This is me playing it.... I have horrible recording stuff so sorry about that! cool.gif

Attached File  sweep4.wav ( 1.39MB ) Number of downloads: 98


Hope you like it!

-Justin
Go to the top of the page
 
+Quote Post
chast
post Nov 4 2007, 07:37 AM
Post #6


Learning Roadie
*

Group: Members
Posts: 807
Joined: 20-July 07
From: Germany
Member No.: 2.361




E||--15p--12------12-----------------------------------|--------------------------------------||
B||-----------15------15--12--15p--12------12----------|--------------------------------------||
G||------------------------------------14------14--12--|--14p--12------12---------------------||
D||----------------------------------------------------|-----------14------14--12---14--------||
A||----------------------------------------------------|--------------------------------------||
E||----------------------------------------------------|--------------------------------------||



Played in triplets.
Just finsihed it with a half note, there endless possibilities to continue^^
And you also can play it in every other key, fast, slow, whatever wink.gif


--------------------
"They play it extremely fast, it doesn't make any sense, but it's Slayer so it makes a lot of sense" :)
Go to the top of the page
 
+Quote Post
drummingguitaris...
post Nov 4 2007, 08:46 AM
Post #7


GMC:er
*

Group: Members
Posts: 140
Joined: 4-April 07
From: Birmingham, AL, USA
Member No.: 1.476



Good, good! I really like that sweeping riff...

Sweet tapping riff, (this is not original lol): (Taps aren't showing, Tap on the 19 and 20...not on the 12 or 10)

T T T T T T
e 19p12p10h19p12p10h19p12p10h19p12p10h20p12p10h20p12p10
B -------------------------------------------------------------------------
G ------------------------------------------------------------------------
D ------------------------------------------------------------------------
A ------------------------------------------------------------------------
E ------------------------------------------------------------------------

T T
e 20p12p10h20p12p10
B ------------------------
G ------------------------
D ------------------------
A ------------------------
E -------------------------

Everyone knows this legendary solo beginning (tee-hee)...

This post has been edited by drummingguitarist06: Nov 4 2007, 08:46 AM


--------------------
-->Chris D.<--

My Gear:
Fender DG-xxx Acoustic/Electric
Crate GX-15 series
Ibanez GRG170DX Electric w/ FR Trem
My heart, imagination, hopes, and dreams.

My top 5 influences:
Stevie Ray Vaughan
Carlos Augusto Alves Santana
Saul Hudson (Slash)
Eric Patrick Clapton
Kirk Lee Hammett

QUOTE
thedarkblues06 wrote:

jpast wrote:

He wishes he was in the minority. Nothing like making out with guys to stick it to the man. (Pun intended)
(Off-hand comment made about Pete Wentz wishing he was gay.)
Go to the top of the page
 
+Quote Post
Zephyr
post Nov 4 2007, 09:07 AM
Post #8


GMC:er
*

Group: Members
Posts: 535
Joined: 23-August 07
Member No.: 2.595



e -----------15-------------------------------------------------
B -----------15-----15p12---------- 14br--12----------------
G 12^(16) -----------------14p12--14br--12----------------
D ------------------------------------------------14~---------
A --------------------------------------------------------------
E --------------------------------------------------------------

There's one of 'em...
Go to the top of the page
 
+Quote Post
FretDancer69
post Nov 4 2007, 09:35 AM
Post #9


GMC:er
*

Group: Passive
Posts: 2.442
Joined: 11-June 07
From: Honduras
Member No.: 2.062



thanks. And yeah ,its kinda hard to put the "T"s were they belong, even when you use the Courier font.


--------------------
Playing Guitar Since: December 2006
Go to the top of the page
 
+Quote Post
The Uncreator
post Nov 4 2007, 09:45 AM
Post #10


Fire Up The Blades, Moderator
Group Icon

Group: GMC Senior
Posts: 8.933
Joined: 6-March 07
From: St. Petersburg, Florida
Member No.: 1.304



CODE
Tempo = 180, all notes 16th, except notes with vibrato (~) which are Quarter

|----12-15-15p12----12------------------------|------------------------------------------
|-15-------------15-----15-12-15~----15-12----|-12---------------------------------------
|------------------------------------------14-|----14-12-14~----14-12----12-------12~----
|---------------------------------------------|-----------------------14----14-12--------
|---------------------------------------------|------------------------------------------
|---------------------------------------------|------------------------------------------

Anoter cool lick, really simple, I used it to get my string skip speed up, All notes 16th, tempo still 180, use legato (no picks allowed!) and it sounds cool, to me atleast

|-------------------------------------------------|--------------------------------
|-------------------------------------------------|-------------------------12-15--
|-------------------------------------------------|-------12-15-------12-15--------
|-------------------------12-15-------12-15-------|-12-15-------12-15--------------
|-------12-15-------12-15-------12-15-------12-15-|--------------------------------
|-12-15-------12-15-------------------------------|--------------------------------

|-------|--------------------12-15~---------------|
|-------|-12-15--------12-15----------------------|
|-12-15-|-------12-15-----------------------------|
|-------|-----------------------------------------|
|-------|-----------------------------------------|
|-------|-----------------------------------------|


here is a GP Tab, of it.
Attached File(s)
Attached File  00.gp5 ( 2.17K ) Number of downloads: 47
 
Go to the top of the page
 
+Quote Post
smrt173
post Nov 4 2007, 02:46 PM
Post #11


GMC:er
*

Group: Members
Posts: 23
Joined: 24-October 07
Member No.: 3.129



very good thread. i like it...ever since ive joined gmc i started playing licks..before that i was only concentrating on songs that i like....
now that i can play licks i will feel satisfaction, thanks gmc!
Go to the top of the page
 
+Quote Post
drummingguitaris...
post Nov 5 2007, 04:34 PM
Post #12


GMC:er
*

Group: Members
Posts: 140
Joined: 4-April 07
From: Birmingham, AL, USA
Member No.: 1.476



Here's another one:

e 15---------------------------------------------
B ---15--18b^(20)-18(20)-18(20)-18br-15v~
G ------------------------------------------------
D ------------------------------------------------
A ------------------------------------------------
E -------------------------------------------------

I want some instructors in here posting riffs! Everyone's vocab can increase from this thread!


--------------------
-->Chris D.<--

My Gear:
Fender DG-xxx Acoustic/Electric
Crate GX-15 series
Ibanez GRG170DX Electric w/ FR Trem
My heart, imagination, hopes, and dreams.

My top 5 influences:
Stevie Ray Vaughan
Carlos Augusto Alves Santana
Saul Hudson (Slash)
Eric Patrick Clapton
Kirk Lee Hammett

QUOTE
thedarkblues06 wrote:

jpast wrote:

He wishes he was in the minority. Nothing like making out with guys to stick it to the man. (Pun intended)
(Off-hand comment made about Pete Wentz wishing he was gay.)
Go to the top of the page
 
+Quote Post

Fast ReplyReply to this topicStart new topic
1 User(s) are reading this topic (1 Guests and 0 Anonymous Users)
0 Members:

 


RSS Lo-Fi Version Time is now: 22nd October 2017 - 05:56 AM