Tomorrow's lick is only 0 hours, 0 minutes,
0 seconds away!
Difficulty 3
Sinisa Cekic

Thursday's Country Lick


Major Intervals

Tabs

      C                                              D     
      Q     H         E   E      H           E   E   Q     
E||--------------------------|----------------------------|
B||--------------------------|--11b~----------------------|
G||--------------------------|----------------------------|
D||--10----10--------10--10--|--------------10--11--12----|
A||--------------------------|----------------------------|
E||--------------------------|----------------------------|


                                   G                    F     
   Q     E   E   E   H             Q      Q     E   E   Q     
-------------------------------|--10-----10----10--10--10----|
--------------------13\--------|--10b----10-----8---7---6----|
-------------------------------|-----------------------------|
--12----12--12--12-------------|-----------------------------|
-------------------------------|-----------------------------|
-------------------------------|-----------------------------|


         C                              
  Q      Q    E  E  Q                   
-----------------8--------|-----------||
--8------8-------8--------|-----------||
--7br----5----7-----7b----|-----------||
--------------------------|-----------||
--------------------------|-----------||
--------------------------|-----------||

Lick Information

A short lick played using bigger intervals.

Scales and Theory

C Major natural scale. An interval is the distance between 2 notes. Try to learn and recognise the intervals from the major scale - as they are fundamental to western popular music.

image