Tomorrow's lick is only 0 hours, 0 minutes,
0 seconds away!
Difficulty 5
Sinisa Cekic

Tuesday's Country Lick


Opening Lead

Tabs

             A7                                                      
             S   E  S E  E  E  E  E  E     E  E  E  E  Q.     S  S.  
E||-------|--8s--9----7-----5-----5-----|---------------------------|
B||-------|--9s-10----8-----5-----4-----|--7-----5------------------|
G||-------|-----------------------------|--7-----5--6---------5s-6--|
D||-------|-----------------------------|-----7--------7------4s-5--|
A||-------|---------x----x-----x-----x--|---------------------------|
E||-------|-----------------------------|---------------------------|


  PM    PM    PM    PM                                       
  E  E  E  E  E  E  S  Q        E  S S S S S S S S E  Q      
-----------------------------|-----------------------------||
-----------------------------|-----------------------------||
-----4-----2-----0-----------|--0--------------------------||
-----4-----2-----0-----4b----|-----3-4-3-0-----------------||
--0-----0-----0-----0--------|-------------3-4-3-0----0----||
-----------------------------|---------------------3-------||

Lick Information

Intro lick played in thirds, over an A major chord.

Scales and Theory

We're playing the key of A major with a combination of the A major scale (1) and the A blues scale (2). We are also adding passing notes outside of these scales.

image image