Sinisa Cekic

Saturday's Country Lick

Dead Note Picking

Tabs

     G                                                              
     T T  E   S S E  S S E  S S E.     S S E  E  E  E  S S S S S S  
E||---------------------------------|------------------------------|
B||------10b--x-x-8--x-x-6--x-x-5---|--x-x-3--2--1--0--------------|
G||----x----------------------------|------------------3-4---------|
D||--x------------------------------|----------------------5-3-----|
A||---------------------------------|--------------------------5-4-|
E||---------------------------------|------------------------------|


  S S Q      
-----------||
-----------||
-----------||
-----------||
--3--------||
----6-7----||

Lick Information

Extended country/blues lick played with dead notes.

Scales and Theory

G extended blues scale.

image