Tomorrow's lick is only 0 hours, 0 minutes,
0 seconds away!
Difficulty 3
Sinisa Cekic

Tuesday's Country Lick


Major Riffing

Tabs

     E5                                             A5  
           T                                            
     E  E  E  E  E  E  E  E     E  E  Q    E  E  E  E   
E||--------------------------|-------------------------|
B||--------------------------|-------------------------|
G||--------------------------|-------------------------|
D||-----2--0-----------------|--------2----------------|
A||-----------2--4--0--2--0--|----------------------0--|
E||--0-----------------------|--3--4-------0--3--4-----|


  E  E  E  E  E  E  E  E     E  Q      
--------------------------|----------||
--------------------------|----------||
--2--0--------------------|-----2----||
--------0--4--0--2--0-----|----------||
-----------------------3--|--4-------||
--------------------------|----------||

Lick Information

Here is a major pentatonic riff, ideal for a song intro.

Scales and Theory

E major pentatonic and A major pentatonic.

image image