Tomorrow's lick is only 0 hours, 0 minutes,
0 seconds away!
Difficulty 5
Ivan Milenkovic

Saturday's Country Lick


Dorian Lick

Tabs

     |-3| |-3| |-3| |-3| |-3| |-3| |-3| |-3|  
     E  S E  S E  S E  S E  S E  S E  S E  S  
E||------------------------------------------|
B||------------5--6--------------------------|
G||-----4-5--7------7--4-5----4--------------|
D||--7----------------------7----7-5--0-3--5-|
A||------------------------------------------|
E||------------------------------------------|


     |-3| |-3| |-3|                                  
  E  E  S E  S E  S Q    Q        W                  
-------------------------0~----|--L----------------||
-------------------------7-----|--L----------------||
-------------------------7-----|--L----------------||
--0--5--0-3--4-0----0----0-----|--L----------------||
------------------3------0-----|--L----------------||
-------------------------------|-------------------||

Lick Information

Dorian lick with a touch of blues and use of open strings - as well as an open-stringed chord at the end.

Scales and Theory

This lick is in straight D dorian, but also uses D minor blues notes at the end. The last chord is D9.

image