Tomorrow's lick is only 0 hours, 0 minutes,
0 seconds away!
Difficulty 3
Ivan Milenkovic

Sunday's Country Lick


Ascending Thirds

Tabs

     |--3--|  |--3--|  |--3--|  |--3--|     |---3--|   |---3---|   |---3---|   |---3---|   
     E  E  E  E  E  E  E  E  E  E  E  E     E   E  E   E   E   E   E   E   E   E   E   E   
E||--2-----2--4-----4--5-----5--7-----7--|--9------9--10------10--12------12--14------16--|
B||-----3--------5--------7--------9-----|-----10---------12----------14----------15------|
G||--------------------------------------|------------------------------------------------|
D||--------------------------------------|------------------------------------------------|
A||--------------------------------------|------------------------------------------------|
E||--------------------------------------|------------------------------------------------|


          |--3--|   |---3--|   |---3---|                               
   E  E   Q     E   Q      E   Q       E      Q.       H          E    
--17-----14-------------------------------|-----------17~---------L--||
---------------17---------17--------------|-----------14----------L--||
-------------------16b--------16br----14--|---L~------14----------L--||
------------------------------------------|-----------14----------L--||
------------------------------------------|------------0----------L--||
------------------------------------------|--------------------------||

Lick Information

Ascending lick that uses various picking techniques. It ends with a bent lick and a full A major chord.

Scales and Theory

Uses A major scale notes in third intervals alternating between high E and B strings.

image