Tomorrow's lick is only 0 hours, 0 minutes,
0 seconds away!
Difficulty 4
Stephane Lucarelli

Tuesday's Jazz Lick


Joe Pass Style

Tabs

     D-7                         G7alt                        
     E   E  E  E  E  E  E  E     E     E  E  E   E  E  E  E   
E||---------------------------|------------------------------|
B||---------------------------|------------------------------|
G||--5------4--5--------------|---------------------------6--|
D||------7--------7-----------|--5-----------5s--6--8--9-----|
A||------------------8--7--5--|--------7--8------------------|
E||---------------------------|------------------------------|


  CM7                            
                    |-3-|        
  E   E  E  E   E   S S S Q      
------------7--10---L-9-8-7----||
---------8---------------------||
--7---9------------------------||
-------------------------------||
-------------------------------||
-------------------------------||

Lick Information

Here's a classic Jazz progression, the II V I in the style of Mr Joe Pass.

Scales and Theory

Theory wise, we play the C Major scale and the D-9 arpeggio over the D-7 chord. Over the G7 altered chord we play the Ab Melodic minor scale, also
called the Altered scale/mode to create tensions and resolution over the the CM7 chord.

image image