Tomorrow's lick is only 0 hours, 0 minutes,
0 seconds away!
Difficulty 4
Stephane Lucarelli

Sunday's Jazz Lick


G Mixolydian

Tabs

      E   E   E  E  E   E  E  E     E  E  E  E  E  E  E  E   
E||--------------8--7------------|--------------------------|
B||----------10--------10--8--7--|--6-----------------------|
G||------10----------------------|-----7--------------------|
D||--12--------------------------|--------7-----5-----------|
A||------------------------------|-----------8-----8--5--6--|
E||------------------------------|--------------------------|


  E  E  E   E  E  E  E    E     Q    Q    Q    Q      
-----------------------------|----------------------||
-----------------------------|----------------------||
------------------5--9s--10--|--7-------------------||
-----5---------7-------------|----------------------||
--7-----7s--8----------------|----------------------||
-----------------------------|----------------------||

Lick Information

Here's a lick that outlines the G7 sound, with some passing tones (non-diatonic notes) to spice up the mixolydian scale.

Scales and Theory

The lick is built around the G Mixolydian scale and I use the D-7 arpeggio (first bar), D-arpeggio (second bar) and finally the F7M arpeggio (last bar).
The passing tones I use are some classic jazz articulation.

image