Tomorrow's lick is only 0 hours, 0 minutes,
0 seconds away!
Difficulty 3
Ivan Milenkovic

Saturday's Jazz Lick


Funky B flat

Tabs

       |--3-|  |--3--|    |--3-|  |--3--|     |--3--|  |--3--|   |---3--|   |--3--|   
       Q    E  E  E  E    Q    E  E  E  E     E  E  E  E  E  E   E  E   E   E  E  E   
E||--5g6----5-----------5g6----5-----------|-----------------------------------8--9--|
B||----6-------8--6-------6-------8--6-----|------------------------8--10--11--------|
G||------------------7------------------7--|--5--7--8--7--8--9--10-------------------|
D||----------------------------------------|-----------------------------------------|
A||----------------------------------------|-----------------------------------------|
E||----------------------------------------|-----------------------------------------|


   |--3--|  |--3--|                 |--3-|   |---3---|                          
   Q     E  Q     E  H              Q    E   E   E   E  H                       
--10--------------------------|--8g10----8------------------------|-----------||
--------11-------11--L--------|----10-------11--10----------------|-----------||
------------------------------|---------------------10------------|-----------||
------------------------------|-------------------------8~--------|-----------||
------------------------------|-----------------------------------|-----------||
------------------------------|-----------------------------------|-----------||

Lick Information

A major sounding alternate picking jazz lick with interval playing and chromatic approach.

Scales and Theory

This funky jazz lick is in the key of B major, and uses Bb6 as a starting point. The rhythm is comping with swing feel on the Bb6/9 chord, and the scale is mostly Bb major with an added chromatic passage in the second bar.

image