Tomorrow's lick is only 0 hours, 0 minutes,
0 seconds away!
Difficulty 4
Ivan Milenkovic

Friday's Jazz Lick


Arpeggio Melody

Tabs

     |---3--|   |---3--|  |---3--|   |---3--|   
     E   E  E   E  E   E  E  E   E   E  E   E   
E||-------------------------------------8--11--|
B||-----------------------8--9--10--11---------|
G||---------7--10--8--10-----------------------|
D||--8--10-------------------------------------|
A||--------------------------------------------|
E||--------------------------------------------|


     |---3---|  |--3--|  |--3-|  |--3-|                         
     Q       E  E  E  E  Q    E  Q    E     W                   
--9g10----9g10--7----------------4----7--|--6~----------------||
-------------------8----------5----------|--------------------||
----------------------7--4---------------|--------------------||
-----------------------------------------|--------------------||
-----------------------------------------|--------------------||
-----------------------------------------|--------------------||

Lick Information

This lick uses short arpeggio pieces to form a melody. Watch out for the double sliding move, and try to make it sound as fluent as possible.

Scales and Theory

The harmony is in Eb, and follows a I-II7-V7-I-II-V7 progression. It starts with eight triplets and goes into swing.

image