Tomorrow's lick is only 0 hours, 0 minutes,
0 seconds away!
Difficulty 5
Stephane Lucarelli

Monday's Jazz Lick


Passing Tones

Tabs

      E   E   E  E  E  E  E   E     E  E  E  E  E  E  E  E   
E||--12--11--10--9--8-----7------|--------------------------|
B||--------------------9-----10--|--8--7--6--8--5-----------|
G||------------------------------|-----------------7--------|
D||------------------------------|--------------------7-----|
A||------------------------------|-----------------------8--|
E||------------------------------|--------------------------|


  Q    H.             
--------------------||
--------------------||
--------------------||
--9-----------------||
--------------------||
--------------------||

Lick Information

Here's a lick that explores the sound of the G7 chord. It contains several passing tones to add tension and color to the original mixolydian scale.

Scales and Theory

The lick is built around the G Mixolydian scale. Notice that the non diatonic notes are on the up beat.
Transpose the lick into other octaves and other keys!

image