Diego Budicin

Monday's Rhythm Lick

Rock Blues

Tabs

             PM PM >                    
E||------------------------------------|
B||------------------------------------|
G||----------------5b------------------|
D||-----5h-7-----------7--5------------|
A||--0-------0--0-----------7-7g5-3----|
E||---------------------------------5--|

---------------------------------------||
-------------------------------8-8h-10-||
----------------5b---------7g9---9---L-||
-----5h-7-----------7--5---------------||
--0-------0--0-----------7-------------||
---------------------------------------||

Lick Information

This rhythm is inspired by the sound of bands like “Eagles”, with a touch of Rap Metal.

Scales and Theory

You can start improvising over the backing track using the A minor blues scale.

image