Tomorrow's lick is only 0 hours, 0 minutes,
0 seconds away!
Difficulty 4
Fernando Culen

Wednesday's Blues Lick


Wayne Ending

Tabs

     |---3---|        |---3--|           |---3---|                       
     E   E   E  E.  S E   E  E  E.  S    E   E   E  E.  S E.     S Q     
E||-----------------------------------|---------------------------------|
B||-------------------7p--5-----5---5-|-------------------7-------------|
G||-------------------7p--5-----5---5-|-------------------7pbr---5------|
D||-------------5---5--------7--------|-------------5---5----------7----|
A||--5h--6h--7------------------------|--5h--6h--7----------------------|
E||-----------------------------------|---------------------------------|


  Q    E.  S E.   S  Q              
--------------------------|-------||
--------------------------|-------||
--5----7---5--------------|-------||
--------------------------|-------||
-------------5h---6h-7----|-------||
--------------------------|-------||


Lick Information

Typical Kenny Wayne ending phrase lick. You can listen to these types of licks in his album "Live on". Play it with groove!

Scales and Theory

We're playing in the A minor pentatonic scale + blue note.

image