Tomorrow's lick is only 0 hours, 0 minutes,
0 seconds away!
Difficulty 3
Ivan Milenkovic

Friday's Blues Lick


Shuffle Rhythm

Tabs

                                          PM PM    PM PM    PM PM    PM  
               |--3-|  |---3--|     |--3--|  |--3--|  |--3--|  |--3--|   
     Q    Q    Q    E  E   E  E     E  E  E  E  E  E  E  E  E  E  E  E   
E||------------------------------|--------------------------------------|
B||------------------------------|--2-----------------------------------|
G||-----------------2--2------2--|--2-----------------------------------|
D||-----------------2--2h--4-----|--2-----2--4-----2--2-----2--4-----2--|
A||------------------------------|--0-----0--0-----0--0-----0--0-----0--|
E||------------------------------|--------------------------------------|


  PM    PM                                   PM    PM PM    PM PM    PM PM    PM  
  |--3--|       |-3-| |---3--|  |---3--|     |--3--|  |--3--|  |--3--|  |--3--|   
  E  E  E  S  S S S S E   E  E  E   E  E     E  E  E  E  E  E  E  E  E  E  E  E   
------------------------------------------|--------------------------------------|
--------------------2--------2---------2--|--------------------------------------|
------------------2---2------2--2------2--|--------------------------------------|
--2-----2--2h-4-2-----2h--4--2--2h--4--2--|--2-----2--4-----2--2-----2--4-----2--|
--0-----0---------------------------------|--0-----0--0-----0--0-----0--0-----0--|
------------------------------------------|--------------------------------------|


  PM    PM PM    PM PM    PM              PM    PM PM    PM PM    PM PM    PM  
  |--3--|  |--3--|  |--3--|  |---3--|     |--3--|  |--3--|  |--3--|  |--3--|   
  E  E  E  E  E  E  E  E  E  E   E  E     E  E  E  E  E  E  E  E  E  E  E  E   
---------------------------------------|--------------------------------------|
------------------------------------2--|--3-----------------------------------|
-----------------------------2------2--|--2-----2--4-----2--2-----2--4-----2--|
--2-----2--4-----2--2-----2--2h--4--2--|--0-----0--0-----0--0-----0--0-----0--|
--0-----0--0-----0--0-----0------------|--------------------------------------|
---------------------------------------|--------------------------------------|


                                              PM    PM PM    PM PM    PM PM    PM  
       |-3-| |---3--|  |---3--|  |---3--|     |--3--|  |--3--|  |--3--|  |--3--|   
  S  S S S S E   E  E  E   E  E  E   E  E     E  E  E  E  E  E  E  E  E  E  E  E   
-----------2--------2---------2---------2--|--------------------------------------|
---------3---3------3--3------3--3------3--|--------------------------------------|
--2h-4-2-----2h--4--2--2h--4--2--2h--4--2--|--------------------------------------|
-------------------------------------------|--2-----2--4-----2--2-----2--4-----2--|
-------------------------------------------|--0-----0--0-----0--0-----0--0-----0--|
-------------------------------------------|--------------------------------------|


  PM    PM PM    PM PM    PM                    PM PM    PM PM    PM PM    PM  
  |--3--|  |--3--|  |--3--|  |---3--|     |--3--|  |--3--|  |--3--|  |--3--|   
  E  E  E  E  E  E  E  E  E  E   E  E     E  E  E  E  E  E  E  E  E  E  E  E   
---------------------------------------|--------------------------------------|
------------------------------------2--|--------------------------------------|
-----------------------------2------2--|--------------------------------------|
--2-----2--4-----2--2-----2--2h--4--2--|--------------------------------------|
--0-----0--0-----0--0-----0------------|--2-----2--4-----2--2-----2--4-----2--|
---------------------------------------|--0-----0--0-----0--0-----0--0-----0--|


  |---3--|  |---3--|  |---3--|  |---3--|     |--3-|  |--3-|  |--3-|  |--3-|   
  E   E  E  E   E  E  E   E  E  E   E  E     Q    E  Q    E  Q    E  Q    E   
---------2---------2---------2---------2--|----------------------------------|
--3------3--3------3--3------3--3------3--|----------------------------------|
--2h--4--2--2h--4--2--2h--4--2--2h--4--2--|--2----2--------------------------|
------------------------------------------|--2----2--x----x--x----x--x----x--|
------------------------------------------|--0----0--3----3--4----4--5----5--|
------------------------------------------|----------x----x--x----x--x----x--|


  |--3-|  |--3--|  |--3--|  |--3--|                        
  Q    E  E  E  E  E  E  E  E  E  E     W                  
-------------------------------------|-------------------||
----------5--x--5--L--5--5--5--5--5--|--5----------------||
----------7--x--7--L--7--7--7--7--7--|--6----------------||
--x----x--6--x--6--L--6--6--6--6--6--|--7----------------||
--6----x--7--x--7--L--7--7--7--7--7--|--7----------------||
--x----x-----------------------------|--5----------------||

Lick Information

A blues rhythm lick, suitable for shuffle rhythm, reminiscent of Freddy King.

Scales and Theory

This lick is in A major, and uses a I-IV-V 12 bar progression. Timing is 4/4, shuffle rhythm.

image image