Tomorrow's lick is only 0 hours, 0 minutes,
0 seconds away!
Difficulty 3
Stephane Lucarelli

Monday's Blues Lick


Minor Comping

Tabs

     Q    S E  S E  E  E  E     Q    S E.   E  E   S  S E   
E||-------3------------------|-------3---------------------|
B||-------3---------------3--|--L----3---------6-----------|
G||-------3----x----------3--|--L----3-----/7------5p-3----|
D||------------x----3--5-----|--------------------------5--|
A||--------------5-----------|-----------------------------|
E||--3-----------------------|-----------------------------|


  Q    Q    Q    Q              
----------------------|-------||
----------------------|-------||
----------------------|-------||
----------------------|-------||
----------------------|-------||
--3-------------------|-------||

Lick Information

Here's a minor comping idea over a Gm or Gm7 chord.

Scales and Theory

The lick is built with the Gm/Gm7 chord and G pentatonic minor scale. You could try to improvise a bit and add you own fills at the end of the secand bar!

image