Tomorrow's lick is only 0 hours, 0 minutes,
0 seconds away!
Difficulty 3
Ivan Milenkovic

Sunday's Blues Lick


Mix-o-major

Tabs

       |--3--|  |--3--|  |--3--|  |---3--|   
       E  E  E  Q     E  Q     E  Q      E   
E||-------------4b-------------7------------|
B||-------------5b-------7b-------7br----5--|
G||-------4--6--------6---------------------|
D||--4g6------------------------------------|
A||-----------------------------------------|
E||-----------------------------------------|


     |---3--|   |----3---|   |----3---|   |---3---|                           
     E  E   E   E    E   E   E    E   E   Q       E       W                   
----------------9b---------------12--10---------------|---------------------||
---------------10b------10--12b----------12br----10~--|---L~----------------||
--------9--11-------11--------------------------------|---------------------||
--9g11------------------------------------------------|---------------------||
------------------------------------------------------|---------------------||
------------------------------------------------------|---------------------||

Lick Information

This lick is completely major based, using both major pentatonic and mixolydian notes. It can be used for both blues and country playing, but for rock as well.

Scales and Theory

In this lick we will concentrate only on the I-IV move in the harmony. You can hear that the backing only alternates between E and A chords in the bass line.

image image