Stephane Lucarelli

Thursday's Blues Lick

SRV Turnaround

Tabs

     |--3--|  |--3--|  |---3--|  |--3--|   
     E  E  E  E  E  E  S S E  E  E  E  E   
E||---------------------------------------|
B||---------------------------------------|
G||---------------------------------------|
D||--0--1--2--0------------------------2--|
A||--------------2--1--0-1-0-----0--------|
E||---------------------------3-----3-----|


          |--3--|    |--3--|    |---3--|            |--3--|             
  E  E    E  E  E    E  E  E    E   E  E     E  E   E  E  E  H          
-----0------------------------------------|---------------------------||
-----0--2g3--3--3--2g3--3--3--------------|---------------------------||
--------3g4--4--4--3g4--4--4--4g2p--0-----|---------------------------||
---------------------------------------2--|---------------------------||
------------------------------------------|---------0--1--2--L--------||
--0---------------------------------------|--0--3b--------------------||

Lick Information

Here we go for a classic Stevie Ray Vaughan turnaround!

Scales and Theory

The lick starts on the last 3 bars of a Blues shuffle in E ( I A7 I E7 I E7/B7 I ).
We play the E blues scale throughout and we add some passing tones at the beginning & the end of the lick.

image