Tomorrow's lick is only 0 hours, 0 minutes,
0 seconds away!
Difficulty 5
Ivan Milenkovic

Tuesday's Blues Lick


Turnaround

Tabs

     |--3--|  |--3--|  |--3--|  |---3---|     |--3--|  |-3| |3|  |--3--|  |---3--|   
     Q     E  E  E  E  E  E  E  E  E    E     E  E  E  E  S S E  E  E  E  E  E   E   
E||--------0-------------------------------|----------------------------------------|
B||--3b-------2-----0--------------2----0--|----------------------------------------|
G||--------------2-----3--2--0-----2--0g1--|----------------------------------------|
D||-----------------------------2----------|--2--0---------------------2------------|
A||----------------------------------------|--------2--0--1-0----0--2-----2---------|
E||----------------------------------------|------------------3--------------3b--0--|


  W                                   
--3~----------------|-------|-------||
--3-----------------|-------|-------||
--1-----------------|-------|-------||
--2-----------------|-------|-------||
--2-----------------|-------|-------||
--0-----------------|-------|-------||

Lick Information

This is a descending lick for ending solos, or for turnarounds. The lick has one sharp bend, and it involves cool crossing patterns in the minor pentatonic box 1.

Scales and Theory

For this lick the focus is on the minor pentatonic scale, but with added dorian and blues scale notes. Works well over I-IV-V progression.

image image