Reply to this topicStart new topic
> Song Riff/melody Help
draftzero
post Feb 20 2009, 05:17 AM
Post #1


GMC:er
*

Group: Members
Posts: 40
Joined: 22-January 09
From: Texas
Member No.: 6.647



I'm trying to come up with a riff/melody for two songs:

Chris Tomlin - Kindness
Tab - Video

Wish i had something for this, but i'm totally stuck huh.gif
Also kind of stuck on the strumming pattern, i can kinda match it, but its not totally accurate.


David Crowder - Wholly Yours
Tab - Video

We don't use a capo, so i'm guessing this is in the key of C.

For the verses of Wholly Yours I've got:

CODE
----10-15/16-10----12-13-12----
-13-------------13----------13-
-------------------------------
-------------------------------
-------------------------------
-------------------------------


Small riff after C is played

CODE
--13h15-------------
--------14p12-------
--------------14p12-
--------------------
--------------------
--------------------



Thanks! I'll post any progress i make with these buggers. dry.gif
Go to the top of the page
 
+Quote Post

Fast ReplyReply to this topicStart new topic
1 User(s) are reading this topic (1 Guests and 0 Anonymous Users)
0 Members:

 


RSS Lo-Fi Version Time is now: 24th March 2017 - 10:56 PM