2 Pages V   1 2 >  
Closed TopicStart new topic
> Michaelwalker Guitar Mentoring
Alex Feather
post Mar 28 2012, 11:27 PM
Post #1


Instructor
Group Icon

Group: GMC Instructor
Posts: 4.332
Joined: 21-November 11
From: Los Angeles
Member No.: 14.398



Hi Michaelwalker!
I am very excited that you have decided to join my mentoring program!
I am looking forward to start working with you!
I have a few questions that will help me to get a better idea about mentoring you!
Here they are:
-What are your goals?
-What is your weakness?
-What is your strongest point?
-Your favorite guitar players?

Really glad to have you on board!!!


--------------------
Go to the top of the page
 
+Quote Post
michaelwalker
post Apr 3 2012, 05:36 PM
Post #2


GMC:er
*

Group: Members
Posts: 61
Joined: 16-January 12
From: Cadott, WI
Member No.: 14.887



QUOTE (Alex Feather @ Mar 28 2012, 10:27 PM) *
Hi Michaelwalker!
I am very excited that you have decided to join my mentoring program!
I am looking forward to start working with you!
I have a few questions that will help me to get a better idea about mentoring you!
Here they are:
-What are your goals?
-What is your weakness?
-What is your strongest point?
-Your favorite guitar players?

Really glad to have you on board!!!


to play 80's and Classic rock, Ry-them and solo's

My weakness is memorization..

I have alot of time

Joe Walsh, Rudolf Schenker, Michael Schenker..


QUOTE (Alex Feather @ Mar 28 2012, 10:27 PM) *
Hi Michaelwalker!
I am very excited that you have decided to join my mentoring program!
I am looking forward to start working with you!
I have a few questions that will help me to get a better idea about mentoring you!
Here they are:
-What are your goals?
-What is your weakness?
-What is your strongest point?
-Your favorite guitar players?

Really glad to have you on board!!!


I can play like level 2..just don't get how to travel the fret board to play a Open Jam type atmosphere, I want to like guest star and play with a few of my buddys in the local bands, that's my dram, not be in a band, but get on stage and play a few good awesome songs!

It seems to be easier for me to play m own riffs or stuff then try to memorize all of the songs I want to play..even though I want to someday..I love the Scorpions, Tommy Shaw, anything classic..and rocking..


--------------------
Guitars: Jackson DK2S, Jackson JS-20, Peavey AT-200 autotune, my homemade Gibson Flying V, ESP MH-301, Ibanez ARTCORE AF-75, Ibanez Mikro, Yamaha JR-1, Yamaha F-335, Epiphone Artisit 200, Ovation Idea, and last but not least a rare Brownsville Mini.

Amps: Crate GX-2200H with 2 Crate 4X12, Fender G-Dec3, ZT Lunchbox, ZOOM G3X Effects and Amp Simulator
Go to the top of the page
 
+Quote Post
Alex Feather
post Apr 5 2012, 12:24 AM
Post #3


Instructor
Group Icon

Group: GMC Instructor
Posts: 4.332
Joined: 21-November 11
From: Los Angeles
Member No.: 14.398



Perfect! I think if it's easier for you to memorize your own licks I can teach you how to create them!
Here is the backing track for you!
http://soundcloud.com/alex-feather-akimov/guitar

The chords are C maj - A mi - E mi
For your first assignment we will take two pentatonics and combine them together
Here are the pentatonics I want you to use:
A minor


E minor


Take any notes and create your own licks!
Here is an example:
E |--8--5--7--5--------5-------|--------8-----7-----8-------|----|
B |--------------8--5----------|-----------5-----5-----8----|----|
G |-----------------------4----|--5--7----------------------|----|
D |----------------------------|----------------------------|----|
A |----------------------------|----------------------------|----|
E |----------------------------|----------------------------|----|


--------------------8--5----|----||
--------------5-------------|----||
--5--7-----------7----------|----||
--------5--7----------------|----||
----------------------------|----||
----------------------------|----||

Guitar Pro
Attached File  licks.gp5 ( 1.74K ) Number of downloads: 56


Let me know if you have any questions!!!


--------------------
Go to the top of the page
 
+Quote Post
Alex Feather
post Apr 15 2012, 08:40 AM
Post #4


Instructor
Group Icon

Group: GMC Instructor
Posts: 4.332
Joined: 21-November 11
From: Los Angeles
Member No.: 14.398



QUOTE (michaelwalker @ Apr 3 2012, 04:36 PM) *
to play 80's and Classic rock, Ry-them and solo's

My weakness is memorization..

I have alot of time

Joe Walsh, Rudolf Schenker, Michael Schenker..




I can play like level 2..just don't get how to travel the fret board to play a Open Jam type atmosphere, I want to like guest star and play with a few of my buddys in the local bands, that's my dram, not be in a band, but get on stage and play a few good awesome songs!

It seems to be easier for me to play m own riffs or stuff then try to memorize all of the songs I want to play..even though I want to someday..I love the Scorpions, Tommy Shaw, anything classic..and rocking..


Hi I just wanted to see how are you doing and if you need any help with your assignment!! Please let me know!


--------------------
Go to the top of the page
 
+Quote Post
Alex Feather
post Apr 25 2012, 07:40 AM
Post #5


Instructor
Group Icon

Group: GMC Instructor
Posts: 4.332
Joined: 21-November 11
From: Los Angeles
Member No.: 14.398



QUOTE (michaelwalker @ Apr 3 2012, 04:36 PM) *
to play 80's and Classic rock, Ry-them and solo's

My weakness is memorization..

I have alot of time

Joe Walsh, Rudolf Schenker, Michael Schenker..




I can play like level 2..just don't get how to travel the fret board to play a Open Jam type atmosphere, I want to like guest star and play with a few of my buddys in the local bands, that's my dram, not be in a band, but get on stage and play a few good awesome songs!

It seems to be easier for me to play m own riffs or stuff then try to memorize all of the songs I want to play..even though I want to someday..I love the Scorpions, Tommy Shaw, anything classic..and rocking..

Hello! How are you doing? I just wanted to check and see if you are ready for a new challenge?


--------------------
Go to the top of the page
 
+Quote Post
Alex Feather
post May 12 2012, 06:04 AM
Post #6


Instructor
Group Icon

Group: GMC Instructor
Posts: 4.332
Joined: 21-November 11
From: Los Angeles
Member No.: 14.398



QUOTE (michaelwalker @ Apr 3 2012, 04:36 PM) *
to play 80's and Classic rock, Ry-them and solo's

My weakness is memorization..

I have alot of time

Joe Walsh, Rudolf Schenker, Michael Schenker..




I can play like level 2..just don't get how to travel the fret board to play a Open Jam type atmosphere, I want to like guest star and play with a few of my buddys in the local bands, that's my dram, not be in a band, but get on stage and play a few good awesome songs!

It seems to be easier for me to play m own riffs or stuff then try to memorize all of the songs I want to play..even though I want to someday..I love the Scorpions, Tommy Shaw, anything classic..and rocking..

I just wanted to follow up and see how are you doing? I have a new challenge ready for you!!!!


--------------------
Go to the top of the page
 
+Quote Post
Alex Feather
post May 22 2012, 07:33 AM
Post #7


Instructor
Group Icon

Group: GMC Instructor
Posts: 4.332
Joined: 21-November 11
From: Los Angeles
Member No.: 14.398



I have a very cool mechanical exercise for you! It will help you develop technique and will sync your hands together!
Practice it slow using a metronome! Use alternative picking! Slower you will practice it better results you will get!
Here is the tab:
E |----------------------------------------------------|
B |----------------------------------------------------|
G |--------------------------------------1--2--3--4----|
D |--------------------------1--2--3--4----------------|
A |--------------1--2--3--4----------------------------|
E |--1--2--3--4----------------------------------------|


--------------1--2--3--4--3--2--1-------------------|
--1--2--3--4-----------------------4--3--2--1-------|
-----------------------------------------------4----|
----------------------------------------------------|
----------------------------------------------------|
----------------------------------------------------|


----------------------------------------------------|----|
----------------------------------------------------|----|
--3--2--1-------------------------------------------|----|
-----------4--3--2--1-------------------------------|----|
-----------------------4--3--2--1-------------------|----|
-----------------------------------4--3--2--1--0----|----|


----------------------------------------------------|
----------------------------------------------------|
--------------------------------------1--3--2--4----|
--------------1--3--2--4----------------------------|
--------------------------1--3--2--4----------------|
--1--3--2--4----------------------------------------|


--------------------------1--3--2--4--2--3--1--0----|
--1--3--2--4----------------------------------------|
--------------1--3--2--4----------------------------|
----------------------------------------------------|
----------------------------------------------------|
----------------------------------------------------|


----------------------------------------------------|
--------------4--2--3--1----------------------------|
--4--2--3--1--------------------------4--2--3--1----|
--------------------------4--2--3--1----------------|
----------------------------------------------------|
----------------------------------------------------|


----------------------------------------------------|
--------------4--2--3--1----------------------------|
--4--2--3--1--------------------------4--2--3--1----|
--------------------------4--2--3--1----------------|
----------------------------------------------------|
----------------------------------------------------|


----------------------------------------------------|
----------------------------------------------------|
----------------------------------------------------|
--------------4--2--3--1--------------4--2--3--1----|
--4--2--3--1----------------------------------------|
--------------------------4--2--3--1----------------|


-----------------------------------------------1----|
--------------------------------------1--2--4-------|
----------------------------------------------------|
--------------4--2--3--1----------------------------|
--4--2--3--1----------------------------------------|
--------------------------4--2--3--1----------------|


--2--4-----------2--3--5-----------3--4--6----------|
--------2--3--5-----------3--4--6-----------4--5----|
----------------------------------------------------|
----------------------------------------------------|
----------------------------------------------------|
----------------------------------------------------|


-----4--5--7-----------5--6--8-----------6--7--9----|
--7-----------5--6--8-----------6--7--9-------------|
----------------------------------------------------|
----------------------------------------------------|
----------------------------------------------------|
----------------------------------------------------|


-----------7--8--10----------8--9--11----------9----|
--7--8--10----------8--9--11----------9--10-12------|
----------------------------------------------------|
----------------------------------------------------|
----------------------------------------------------|
----------------------------------------------------|


--10-12----------10-11-13-------------11-12-14------|
--------10-11-13----------11-12-14-12----------12---|
----------------------------------------------------|
----------------------------------------------------|
----------------------------------------------------|
----------------------------------------------------|


--------12-13-15----------13-14-16L16L16------------|----|
--13-15----------13-14-16---------------------------|----|
----------------------------------------------------|----|
----------------------------------------------------|----|
----------------------------------------------------|----|
----------------------------------------------------|----|


--16-14-13----------15-13-12----------14-12-11------|
-----------16-14-13----------15-13-12----------14---|
----------------------------------------------------|
----------------------------------------------------|
----------------------------------------------------|
----------------------------------------------------|


--------13-11-10----------12-10-9-----------11-9----|
--12-11----------13-11-10----------12-10-9----------|
----------------------------------------------------|
----------------------------------------------------|
----------------------------------------------------|
----------------------------------------------------|


--8-----------10-8--7-----------9--7--6-------------|
-----11-9--8-----------10-8--7-----------9--7--6----|
----------------------------------------------------|
----------------------------------------------------|
----------------------------------------------------|
----------------------------------------------------|


--8--6--5-------------------------------------------|
-----------8--6--5--7--5--4-----------6--4--3-------|
-----------------------------7--5--4-----------6----|
----------------------------------------------------|
----------------------------------------------------|
----------------------------------------------------|


----------------------------------------------------|----||
--------5--3--2-----------4--2--1-------------------|----||
--4--3-----------5--3--2-----------4--2--1----------|----||
----------------------------------------------------|----||
----------------------------------------------------|----||
--------------------------------------------0L-0----|----||


Attached File  Technique_exercise.gpx ( 16.22K ) Number of downloads: 59

Let me know if you have any questions!
Next week we will start working on more melodic stuff! I will also create a backing track for you! smile.gif


--------------------
Go to the top of the page
 
+Quote Post
michaelwalker
post May 22 2012, 02:42 PM
Post #8


GMC:er
*

Group: Members
Posts: 61
Joined: 16-January 12
From: Cadott, WI
Member No.: 14.887



QUOTE (Alex Feather @ Apr 4 2012, 11:24 PM) *
Perfect! I think if it's easier for you to memorize your own licks I can teach you how to create them!
Here is the backing track for you!
http://soundcloud.com/alex-feather-akimov/guitar

The chords are C maj - A mi - E mi
For your first assignment we will take two pentatonics and combine them together
Here are the pentatonics I want you to use:
A minor


E minor


Take any notes and create your own licks!
Here is an example:
E |--8--5--7--5--------5-------|--------8-----7-----8-------|----|
B |--------------8--5----------|-----------5-----5-----8----|----|
G |-----------------------4----|--5--7----------------------|----|
D |----------------------------|----------------------------|----|
A |----------------------------|----------------------------|----|
E |----------------------------|----------------------------|----|


--------------------8--5----|----||
--------------5-------------|----||
--5--7-----------7----------|----||
--------5--7----------------|----||
----------------------------|----||
----------------------------|----||

Guitar Pro
Attached File  licks.gp5 ( 1.74K ) Number of downloads: 56


Let me know if you have any questions!!!


wow sorry, i did not know how to find my Board with you, just did and seen you posted this last month, no wonder why..i aint getting no where..lol


--------------------
Guitars: Jackson DK2S, Jackson JS-20, Peavey AT-200 autotune, my homemade Gibson Flying V, ESP MH-301, Ibanez ARTCORE AF-75, Ibanez Mikro, Yamaha JR-1, Yamaha F-335, Epiphone Artisit 200, Ovation Idea, and last but not least a rare Brownsville Mini.

Amps: Crate GX-2200H with 2 Crate 4X12, Fender G-Dec3, ZT Lunchbox, ZOOM G3X Effects and Amp Simulator
Go to the top of the page
 
+Quote Post
Alex Feather
post May 22 2012, 07:14 PM
Post #9


Instructor
Group Icon

Group: GMC Instructor
Posts: 4.332
Joined: 21-November 11
From: Los Angeles
Member No.: 14.398



QUOTE (michaelwalker @ May 22 2012, 01:42 PM) *
wow sorry, i did not know how to find my Board with you, just did and seen you posted this last month, no wonder why..i aint getting no where..lol

Oh I see:) well now every time I will post a new assignment I will send you a PM!Now you have 2 assignments to work on! LOL


--------------------
Go to the top of the page
 
+Quote Post
michaelwalker
post May 23 2012, 05:01 PM
Post #10


GMC:er
*

Group: Members
Posts: 61
Joined: 16-January 12
From: Cadott, WI
Member No.: 14.887



QUOTE (Alex Feather @ May 22 2012, 06:33 AM) *
I have a very cool mechanical exercise for you! It will help you develop technique and will sync your hands together!
Practice it slow using a metronome! Use alternative picking! Slower you will practice it better results you will get!
Here is the tab:
E |----------------------------------------------------|
B |----------------------------------------------------|
G |--------------------------------------1--2--3--4----|
D |--------------------------1--2--3--4----------------|
A |--------------1--2--3--4----------------------------|
E |--1--2--3--4----------------------------------------|


--------------1--2--3--4--3--2--1-------------------|
--1--2--3--4-----------------------4--3--2--1-------|
-----------------------------------------------4----|
----------------------------------------------------|
----------------------------------------------------|
----------------------------------------------------|


----------------------------------------------------|----|
----------------------------------------------------|----|
--3--2--1-------------------------------------------|----|
-----------4--3--2--1-------------------------------|----|
-----------------------4--3--2--1-------------------|----|
-----------------------------------4--3--2--1--0----|----|


----------------------------------------------------|
----------------------------------------------------|
--------------------------------------1--3--2--4----|
--------------1--3--2--4----------------------------|
--------------------------1--3--2--4----------------|
--1--3--2--4----------------------------------------|


--------------------------1--3--2--4--2--3--1--0----|
--1--3--2--4----------------------------------------|
--------------1--3--2--4----------------------------|
----------------------------------------------------|
----------------------------------------------------|
----------------------------------------------------|


----------------------------------------------------|
--------------4--2--3--1----------------------------|
--4--2--3--1--------------------------4--2--3--1----|
--------------------------4--2--3--1----------------|
----------------------------------------------------|
----------------------------------------------------|


----------------------------------------------------|
--------------4--2--3--1----------------------------|
--4--2--3--1--------------------------4--2--3--1----|
--------------------------4--2--3--1----------------|
----------------------------------------------------|
----------------------------------------------------|


----------------------------------------------------|
----------------------------------------------------|
----------------------------------------------------|
--------------4--2--3--1--------------4--2--3--1----|
--4--2--3--1----------------------------------------|
--------------------------4--2--3--1----------------|


-----------------------------------------------1----|
--------------------------------------1--2--4-------|
----------------------------------------------------|
--------------4--2--3--1----------------------------|
--4--2--3--1----------------------------------------|
--------------------------4--2--3--1----------------|


--2--4-----------2--3--5-----------3--4--6----------|
--------2--3--5-----------3--4--6-----------4--5----|
----------------------------------------------------|
----------------------------------------------------|
----------------------------------------------------|
----------------------------------------------------|


-----4--5--7-----------5--6--8-----------6--7--9----|
--7-----------5--6--8-----------6--7--9-------------|
----------------------------------------------------|
----------------------------------------------------|
----------------------------------------------------|
----------------------------------------------------|


-----------7--8--10----------8--9--11----------9----|
--7--8--10----------8--9--11----------9--10-12------|
----------------------------------------------------|
----------------------------------------------------|
----------------------------------------------------|
----------------------------------------------------|


--10-12----------10-11-13-------------11-12-14------|
--------10-11-13----------11-12-14-12----------12---|
----------------------------------------------------|
----------------------------------------------------|
----------------------------------------------------|
----------------------------------------------------|


--------12-13-15----------13-14-16L16L16------------|----|
--13-15----------13-14-16---------------------------|----|
----------------------------------------------------|----|
----------------------------------------------------|----|
----------------------------------------------------|----|
----------------------------------------------------|----|


--16-14-13----------15-13-12----------14-12-11------|
-----------16-14-13----------15-13-12----------14---|
----------------------------------------------------|
----------------------------------------------------|
----------------------------------------------------|
----------------------------------------------------|


--------13-11-10----------12-10-9-----------11-9----|
--12-11----------13-11-10----------12-10-9----------|
----------------------------------------------------|
----------------------------------------------------|
----------------------------------------------------|
----------------------------------------------------|


--8-----------10-8--7-----------9--7--6-------------|
-----11-9--8-----------10-8--7-----------9--7--6----|
----------------------------------------------------|
----------------------------------------------------|
----------------------------------------------------|
----------------------------------------------------|


--8--6--5-------------------------------------------|
-----------8--6--5--7--5--4-----------6--4--3-------|
-----------------------------7--5--4-----------6----|
----------------------------------------------------|
----------------------------------------------------|
----------------------------------------------------|


----------------------------------------------------|----||
--------5--3--2-----------4--2--1-------------------|----||
--4--3-----------5--3--2-----------4--2--1----------|----||
----------------------------------------------------|----||
----------------------------------------------------|----||
--------------------------------------------0L-0----|----||


Attached File  Technique_exercise.gpx ( 16.22K ) Number of downloads: 59

Let me know if you have any questions!
Next week we will start working on more melodic stuff! I will also create a backing track for you! smile.gif


Now here is the problem, how do you guys memorize this, I thin I could do it faster if I would remember...all of that..

how do you remember it all?


QUOTE (Alex Feather @ Apr 4 2012, 11:24 PM) *
Perfect! I think if it's easier for you to memorize your own licks I can teach you how to create them!
Here is the backing track for you!
http://soundcloud.com/alex-feather-akimov/guitar

The chords are C maj - A mi - E mi
For your first assignment we will take two pentatonics and combine them together
Here are the pentatonics I want you to use:
A minor


E minor


Take any notes and create your own licks!
Here is an example:
E |--8--5--7--5--------5-------|--------8-----7-----8-------|----|
B |--------------8--5----------|-----------5-----5-----8----|----|
G |-----------------------4----|--5--7----------------------|----|
D |----------------------------|----------------------------|----|
A |----------------------------|----------------------------|----|
E |----------------------------|----------------------------|----|


--------------------8--5----|----||
--------------5-------------|----||
--5--7-----------7----------|----||
--------5--7----------------|----||
----------------------------|----||
----------------------------|----||

Guitar Pro
Attached File  licks.gp5 ( 1.74K ) Number of downloads: 56


Let me know if you have any questions!!!


How do you get notes to sound good together?, how do you know which ones do and will?


--------------------
Guitars: Jackson DK2S, Jackson JS-20, Peavey AT-200 autotune, my homemade Gibson Flying V, ESP MH-301, Ibanez ARTCORE AF-75, Ibanez Mikro, Yamaha JR-1, Yamaha F-335, Epiphone Artisit 200, Ovation Idea, and last but not least a rare Brownsville Mini.

Amps: Crate GX-2200H with 2 Crate 4X12, Fender G-Dec3, ZT Lunchbox, ZOOM G3X Effects and Amp Simulator
Go to the top of the page
 
+Quote Post
Alex Feather
post May 23 2012, 05:10 PM
Post #11


Instructor
Group Icon

Group: GMC Instructor
Posts: 4.332
Joined: 21-November 11
From: Los Angeles
Member No.: 14.398



QUOTE (michaelwalker @ May 23 2012, 04:01 PM) *
Now here is the problem, how do you guys memorize this, I thin I could do it faster if I would remember...all of that..

how do you remember it all?




How do you get notes to sound good together?, how do you know which ones do and will?

Well more you do it better it will get! Eventually you will get to the point when you won't have to think about it and it will just flow natural! Next week I will join you and will be playing on the track with you guiding you through! For now I would like to hear your take and what you came up with!


--------------------
Go to the top of the page
 
+Quote Post
michaelwalker
post May 23 2012, 05:16 PM
Post #12


GMC:er
*

Group: Members
Posts: 61
Joined: 16-January 12
From: Cadott, WI
Member No.: 14.887



QUOTE (Alex Feather @ May 23 2012, 04:10 PM) *
Well more you do it better it will get! Eventually you will get to the point when you won't have to think about it and it will just flow natural! Next week I will join you and will be playing on the track with you guiding you through! For now I would like to hear your take and what you came up with!


oh the notes no problem, I meant the mechanical Exercise...

As far as playing on that track, I can work on those 2 A minor and E minor Scales and see what I come up with, I had fun messing with it last night.


--------------------
Guitars: Jackson DK2S, Jackson JS-20, Peavey AT-200 autotune, my homemade Gibson Flying V, ESP MH-301, Ibanez ARTCORE AF-75, Ibanez Mikro, Yamaha JR-1, Yamaha F-335, Epiphone Artisit 200, Ovation Idea, and last but not least a rare Brownsville Mini.

Amps: Crate GX-2200H with 2 Crate 4X12, Fender G-Dec3, ZT Lunchbox, ZOOM G3X Effects and Amp Simulator
Go to the top of the page
 
+Quote Post
Alex Feather
post May 24 2012, 08:27 AM
Post #13


Instructor
Group Icon

Group: GMC Instructor
Posts: 4.332
Joined: 21-November 11
From: Los Angeles
Member No.: 14.398



QUOTE (michaelwalker @ May 23 2012, 04:16 PM) *
oh the notes no problem, I meant the mechanical Exercise...

As far as playing on that track, I can work on those 2 A minor and E minor Scales and see what I come up with, I had fun messing with it last night.

Perfect! I am looking forward to hear what you will come up with!


--------------------
Go to the top of the page
 
+Quote Post
michaelwalker
post May 26 2012, 08:33 PM
Post #14


GMC:er
*

Group: Members
Posts: 61
Joined: 16-January 12
From: Cadott, WI
Member No.: 14.887



QUOTE (Alex Feather @ Apr 4 2012, 11:24 PM) *
Perfect! I think if it's easier for you to memorize your own licks I can teach you how to create them!
Here is the backing track for you!
http://soundcloud.com/alex-feather-akimov/guitar

The chords are C maj - A mi - E mi
For your first assignment we will take two pentatonics and combine them together
Here are the pentatonics I want you to use:
A minor


E minor


Take any notes and create your own licks!
Here is an example:
E |--8--5--7--5--------5-------|--------8-----7-----8-------|----|
B |--------------8--5----------|-----------5-----5-----8----|----|
G |-----------------------4----|--5--7----------------------|----|
D |----------------------------|----------------------------|----|
A |----------------------------|----------------------------|----|
E |----------------------------|----------------------------|----|
http://soundcloud.com/michaelslade/alex-feather/s-ZPzgH

--------------------8--5----|----||
--------------5-------------|----||
--5--7-----------7----------|----||
--------5--7----------------|----||
----------------------------|----||
----------------------------|----||

Guitar Pro
Attached File  licks.gp5 ( 1.74K ) Number of downloads: 56


Let me know if you have any questions!!!

Well here it is, aint that good , but oh well..

QUOTE (michaelwalker @ May 26 2012, 07:31 PM) *
Well here it is, aint that good , but oh well..

http://soundcloud.com/michaelslade/alex-feather/s-ZPzgH
Attached File(s)
Attached File  Alex_Feather.mp3 ( 1.41MB ) Number of downloads: 54
 


--------------------
Guitars: Jackson DK2S, Jackson JS-20, Peavey AT-200 autotune, my homemade Gibson Flying V, ESP MH-301, Ibanez ARTCORE AF-75, Ibanez Mikro, Yamaha JR-1, Yamaha F-335, Epiphone Artisit 200, Ovation Idea, and last but not least a rare Brownsville Mini.

Amps: Crate GX-2200H with 2 Crate 4X12, Fender G-Dec3, ZT Lunchbox, ZOOM G3X Effects and Amp Simulator
Go to the top of the page
 
+Quote Post
Alex Feather
post May 28 2012, 09:41 AM
Post #15


Instructor
Group Icon

Group: GMC Instructor
Posts: 4.332
Joined: 21-November 11
From: Los Angeles
Member No.: 14.398



QUOTE (michaelwalker @ May 26 2012, 07:33 PM) *
Well here it is, aint that good , but oh well..


http://soundcloud.com/michaelslade/alex-feather/s-ZPzgH

You did a very good job! I would like you to try to expand pentatonics and use other shapes as well!
Also I would like you to add D minor pentatonic in this position!

Next week I will start recording with you to give you more ideas!
Let me know if you have any questions!


--------------------
Go to the top of the page
 
+Quote Post
michaelwalker
post May 30 2012, 02:22 PM
Post #16


GMC:er
*

Group: Members
Posts: 61
Joined: 16-January 12
From: Cadott, WI
Member No.: 14.887



Hey alex, I see you responded 2 days ago..lol, is there a way for the site to let me know you answered or replied to me? cause I miss this and it's wasting time, I could have done something had I knew you answered me..

thanks
I now see this message has a notification of email repleys but this was quick message I wonder if the regular reply has the same thing .

What do you mean by expanding the pentatonics? you mean in different positions?


--------------------
Guitars: Jackson DK2S, Jackson JS-20, Peavey AT-200 autotune, my homemade Gibson Flying V, ESP MH-301, Ibanez ARTCORE AF-75, Ibanez Mikro, Yamaha JR-1, Yamaha F-335, Epiphone Artisit 200, Ovation Idea, and last but not least a rare Brownsville Mini.

Amps: Crate GX-2200H with 2 Crate 4X12, Fender G-Dec3, ZT Lunchbox, ZOOM G3X Effects and Amp Simulator
Go to the top of the page
 
+Quote Post
Alex Feather
post May 30 2012, 07:46 PM
Post #17


Instructor
Group Icon

Group: GMC Instructor
Posts: 4.332
Joined: 21-November 11
From: Los Angeles
Member No.: 14.398



QUOTE (michaelwalker @ May 30 2012, 01:22 PM) *
Hey alex, I see you responded 2 days ago..lol, is there a way for the site to let me know you answered or replied to me? cause I miss this and it's wasting time, I could have done something had I knew you answered me..

thanks
I now see this message has a notification of email repleys but this was quick message I wonder if the regular reply has the same thing .

What do you mean by expanding the pentatonics? you mean in different positions?

How about I will do that every time I will reply I will send you a PM!

Yes I mean different positions!
Let's do those two:
E minor


A minor


And D minor that I have posted already!
Let me know if you have any questions !


--------------------
Go to the top of the page
 
+Quote Post
Alex Feather
post Jun 22 2012, 07:26 AM
Post #18


Instructor
Group Icon

Group: GMC Instructor
Posts: 4.332
Joined: 21-November 11
From: Los Angeles
Member No.: 14.398



QUOTE (michaelwalker @ May 30 2012, 01:22 PM) *
Hey alex, I see you responded 2 days ago..lol, is there a way for the site to let me know you answered or replied to me? cause I miss this and it's wasting time, I could have done something had I knew you answered me..

thanks
I now see this message has a notification of email repleys but this was quick message I wonder if the regular reply has the same thing .

What do you mean by expanding the pentatonics? you mean in different positions?

I have a new melodic assignment for you! Let me know if you are ready!


--------------------
Go to the top of the page
 
+Quote Post
Alex Feather
post Jul 14 2012, 05:52 PM
Post #19


Instructor
Group Icon

Group: GMC Instructor
Posts: 4.332
Joined: 21-November 11
From: Los Angeles
Member No.: 14.398



QUOTE (michaelwalker @ May 30 2012, 01:22 PM) *
Hey alex, I see you responded 2 days ago..lol, is there a way for the site to let me know you answered or replied to me? cause I miss this and it's wasting time, I could have done something had I knew you answered me..

thanks
I now see this message has a notification of email repleys but this was quick message I wonder if the regular reply has the same thing .

What do you mean by expanding the pentatonics? you mean in different positions?

Hello! I just wanted to follow up and see how are you doing???


--------------------
Go to the top of the page
 
+Quote Post
michaelwalker
post Jul 24 2012, 03:01 PM
Post #20


GMC:er
*

Group: Members
Posts: 61
Joined: 16-January 12
From: Cadott, WI
Member No.: 14.887



QUOTE (Alex Feather @ Jul 14 2012, 04:52 PM) *
Hello! I just wanted to follow up and see how are you doing???


Doing good been practicing Judas Priest Breaking the Law can almost play good with the backing track been using guitar pro 6 to help out, also leaning Kansas Carry on my wayward Son.

Also been doing the Van Halen Style rhythm..now just to make them smooth and sound good.


QUOTE (Alex Feather @ Jun 22 2012, 06:26 AM) *
I have a new melodic assignment for you! Let me know if you are ready!


Yes I am ready


--------------------
Guitars: Jackson DK2S, Jackson JS-20, Peavey AT-200 autotune, my homemade Gibson Flying V, ESP MH-301, Ibanez ARTCORE AF-75, Ibanez Mikro, Yamaha JR-1, Yamaha F-335, Epiphone Artisit 200, Ovation Idea, and last but not least a rare Brownsville Mini.

Amps: Crate GX-2200H with 2 Crate 4X12, Fender G-Dec3, ZT Lunchbox, ZOOM G3X Effects and Amp Simulator
Go to the top of the page
 
+Quote Post

2 Pages V   1 2 >
Closed TopicStart new topic
1 User(s) are reading this topic (1 Guests and 0 Anonymous Users)
0 Members:

 


RSS Lo-Fi Version Time is now: 25th March 2017 - 08:39 PM