Reply to this topicStart new topic
> Video Chat About Diminished Scale, May 20 4pm London Time!
Alex Feather
post May 20 2012, 05:55 AM
Post #1


Instructor
Group Icon

Group: GMC Instructor
Posts: 4.332
Joined: 21-November 11
From: Los Angeles
Member No.: 14.398



Hey guys! Tomorrow we will continue talking about diminished scale and how to use it!

If we will harmonize C diminished scale

we will get those chords:
Cmi7 - Db diminished - Ebmi7 - Eb7 - E diminished - F#half dim - G diminished- Ami7 - A7

So tomorrow I will show you how to build arpeggios and use diminished scale in your daily playing!
I did an example of two arpeggios Cmi7 and Db diminished tomorrow we will finish it up together!
E |----------------------------|--------------2--3--5L-5----|----|
B |----------------------------|-----2--4--5----------------|----|
G |--------------------2--3----|--5-------------------------|----|
D |-----------2--4--5----------|----------------------------|----|
A |--3--4--6-------------------|----------------------------|----|
E |----------------------------|----------------------------|----|


--------------------3--6----|--8--6--3-------------------|-------|----|
-----------------4----------|-----------4----------------|-------|----|
-----------3--5-------------|--------------5--3----------|-------|----|
--------5-------------------|--------------------5-------|-------|----|
--3--6----------------------|-----------------------6----|--3----|----|
----------------------------|----------------------------|-------|----|


--------------------3--6----|--9--6--3-------------------|-------|----||
-----------------5----------|-----------5----------------|-------|----||
-----------3--6-------------|--------------6--3----------|-------|----||
--------5-------------------|--------------------5-------|-------|----||
--4--6----------------------|-----------------------6----|--4----|----||
----------------------------|----------------------------|-------|----||

Attached File  Diminished.gpx ( 15.79K ) Number of downloads: 108

See you at 4 PM in the chat room!


--------------------
Go to the top of the page
 
+Quote Post

Fast ReplyReply to this topicStart new topic
1 User(s) are reading this topic (1 Guests and 0 Anonymous Users)
0 Members:

 


RSS Lo-Fi Version Time is now: 24th January 2017 - 02:04 PM